» » »

Incubus, 4th Movement Of The Odyssey Tabs (ver.1)

Artists:  A B C D E F G H I J K L M N O P Q R S T U V W X Y Z # 

4th Movement Of The Odyssey Tabs (ver.1)

Incubus Tabs
 Rating:
4.4/5 (7 votes)
4th Movement Of The Odyssey lessons Tabs too difficult? Try these video lessons and learn fast
                Incubus
4th Movement of the Odessy (from Halo2 soundtrack)
Standard tuning
                                                                         3x
|--------------------------------------------------------------------------|
|----------------00------------------------------------------------------0-|
|-9-9999-9-9999--00---------------00---------------00--------------------0-|
|-5-5555-6-6666-----9-999-9-9999--00-5-555-5-5555--00----------------------|
|-------------------7-777-5-5555-----2-222-3-0000-----5-555/7-7--7777-7----|
|-----------------------------------------------------2-222---0--0000-0----|

|------------------------------------------------------|
|----------------00------------------------------------|
|-9-9999-9-9999--00----------------00---------------00-|
|-5-5555-6-6666------9-999-9-9999--00-5-555-5-5555--00-|
|--------------------7-777-5-5555-----2-222-3-0000-----|
|------------------------------------------------------|

---------------------------|
---------------------------|
---------------------------|
---------9--99999999999999-|
-5-555/7-7--77777777777777-|
-2-222---0--00000000000000-|

||------------------------------------------------|
||------------------------------------------------|
||--44-xx-44-xx-44-xx-4444-44-xx-44-xx-44-xx-4444-|
||--22-xx-xx-xx-xx-xx-xxxx-22-xx-xx-xx-xx-xx-xxxx-|
||--22-xx-22-xx-22-xx-2222-22-xx-22-xx-22-xx-2222-|
||------------------------------------------------|

---------------------------------------------------||2x
---------------------------------------------------||
-44-xx-44-xx-44-xx-4444--444444--------------------||
-22-xx-xx-xx-xx-xx-xxxx--220000-5555/121212121212--||
-22-xx-22-xx-22-xx-2222---------xxxx--x-x-x-x-x-x--||
--------------------------------3333/101010101010--||

|-----------------------------------------------------------|
|-----------------------------------------------------------|
|-----------------------------------------------------------|
|-7-5------------8-5-----------7-5------------8-5-----------|
|-----7-5------------7-5-----------7-5------------7-5-------|
|---------7-5-3----------7-5-3---------7-5-3----------7-5-3-|

-------------------------------------------------|
-------------------------------------------------|
------------------------------4-66666-9-9-4-4-4--|
-7-5------------8-5-----------x-xxxxx-x-x-x-x-x--|
-----7-5------------7-5-------2/44444-7-7-2-2-2--|
---------7-5-3----------7-5-3-3/55555-8-8-3-3-3--|

|-----------------------------------------------------------|
|-----------------------------------------------------------|
|-----------------------------------------------------------|
|-7-5------------8-5-----------7-5------------8-5-----------|
|-----7-5------------7-5-----------7-5------------7-5-------|
|---------7-5-3----------7-5-3---------7-5-3----------7-5-3-|

---------------------------------------------------------|
---------------------------------------------------------|
------------------------------4-66666-9-9-44444444444444-|
-7-5------------8-5-----------x-xxxxx-x-x-xxxxxxxxxxxxxx-|
-----7-5------------7-5-------2/44444-7-7-22222222222222-|
---------7-5-3----------7-5-3-3/55555-8-8-33333333333333-|
                                                                           2x
|---------------------------------------------------------------------------|
|---------------------------------------------------------------------------|
|---------------------------------------------------------------------------|
|---------------------------------------------------------------------------|
|-------0-5-7------------7-0-----7-5-0-------3---5--------------------------|
|-0-5-7-------0-3--0-3-0-----3-0-------5-3-0---------3---5---8---5---3---5--|

|-------------------------------------------------|
|-------------------------------------------------|
|-------------------------------------------------|
|-------------------------------------------------|
|-7-5-0-------6-4-0-------5-3-0-------4-2-0-------|
|-------5-3-0-------4-2-0-------5-3-0-------4-2-0-|

-1414-14-14-1414-14-14-141414-14-14-141414-14-14-141414-14-14---|
-1111-11-11-1111-11-11-111111-11-11-111111-11-11-111111-11-11---|
-1212-12-12-1212-12-12-121212-12-12-121212-12-12-121212-12-12---|
----------------------------------------------------------------|
----------------------------------------------------------------|
----------------------------------------------------------------|

|---------------------------------------------------------------------------|
|---------------------------------------------------------------------------|
|---------------------------------------------------------------------------|
|---------------------------------------------------------------------------|
|-------0-5-7-0----------7-0-----7-5-0-------3---5--------------------------|
|-0-5-7-------0-3--0-3-0-----3-0-------5-3-0---------3---5---8---5---3---5--|

-------------------|
-----4-------------|
-----4-------------|
-----5-------------|
-----6-------------|
-----0-------------|
            
Submit corrections

comments powered by Disqus
↑ Back to top | Incubus Tabs for 4th Movement Of The Odyssey. Lyrics for acoustic guitar and electric guitar. Tablatures and chords are parodies/interpretations of the original songs. You may use it for private study, scholarship, research or language learning purposes only