» » »

Incognito, Tribal Vibes Bass tabs (ver.1)

Artists:  A B C D E F G H I J K L M N O P Q R S T U V W X Y Z # 

Tribal Vibes Bass tabs (ver.1)

Incognito Tabs
Rating:
5/5 (1 vote)
Hard to play? Try these video lessons and learn fast.
                Intro Riff

G:|----------------8||
D:|----------x8h10--||
A:|-----------------||
E:|-----------------||

Verse(first time it starts from bar 6)
            ~                 ~                 ~
G:|---------8-------|-----------------|---------8-------|
D:|------10---------|----10-8-7-------|------10---------|
A:|---10------------|-----------------|---10------------|
E:|-8-----------6-7-|-88----------6-7-|-8-----------6-7-|

            ~                 ~                 ~
G:|---------8-------|-----------------|---------8-------|
D:|------10---------|----10-8-7-------|------10---------|
A:|---10------------|-----------------|---10------------|
E:|-8-----------6-7-|-88----------6-7-|-8-----------6-7-|

           ~                  ~                  ~
G:|-----------------|---------8-------|-----------------||
D:|---10-8-7--------|------10---------|-----10-8--------||
A:|-----------------|---10------------|----------8------||
E:|-8-----------6-7-|-8-----------6-7-|-8-8-------------||

Chorus

G:|-----------------|-----------------|-----------------|
D:|-----------------|-----------------|-----------------|
A:|-----------------|-----------------|-----------------|
E:|-12-33---3-3-----|-3-3-3-3-----1-2-|-3-3--3-3-1------|

G:|-----------------||
D:|-----------------||
A:|-5h6-6666-6h8----||
E:|-----------------||

Bridge
                               ~
G:|-----------------|-----------------|-----------------|
D:|------10-8-1010--|-----10-8-10-----|-----10-8-10-10--|
A:|---10------------|--10-------------|--10-------------|
E:|-8-------------6h|8-------------6-7|8--------------6h|

                   ~
G:|----------------8||
D:|----10-8h10-8h10-||
A:|--10-------------||
E:|8----------------||

M8 x3

            ~                  ~                ~
G:|---------7-------|-----------------|---------9-------|
D:|------10---------|-------10-8------|------10---------|
A:|---10------------|----10-----------|---10------------|
E:|-8-----------6-7-|-88---------6-7--|-8------------6-7|

             ~             ~             ~             ~
G:|-----------------|------8-1010-8----------|---------12------|
D:|-------12-10-----|----10--------10--8-10--|------12---------|
A:|----10-----------|--10------------10------|---10------------|
E:|-88----------6-7-|88--------------------67|-8-------------67|

  1st&2nd   ~        Last time...
G:|---------15------||---------15--98/9||
D:|------12---------||------12-----87/8||
A:|---10------------||---10-------------||
E:|-8----------6-7--||-8----------------||
            

comments powered by Disqus
↑ Back to top | Incognito Bass for Tribal Vibes. Lyrics for acoustic guitar and electric guitar. Tablatures and chords are parodies/interpretations of the original songs. You may use it for private study, scholarship, research or language learning purposes only