» » »

Incognito, Sunburn Bass tabs (ver.1)

Artists:  A B C D E F G H I J K L M N O P Q R S T U V W X Y Z # 

Sunburn Bass tabs (ver.1)

Incognito Tabs
 Rating:
4/5 (4 votes)
Sunburn lessons Tabs too difficult? Try these video lessons and learn fast
                Intro(comes in on beat 4&)
G:|--------<7>------|-----------------|-----------------|
D:|-----------<7>---|-----------------|-----------------|
A:|--------------<7>|-----7-----------|-----------------|
E:|-----------------|--0--------------|--3--------------|

G:|-----------------|--------<7>------|-----------------|
D:|-----------------|-----------<7>---|-----------------|
A:|--2--------------|--------------<7>|-----7-----------|
E:|-----------------|--3--------------|--0--------------|

G:|-----------------|-----------------|-----------------||
D:|-----------------|-----------------|-----------------||
A:|-----------------|--2--------------|-----------------||
E:|--3--------------|-----------------|--3--------------||

Verse (Main Riff)

G:|---9--7-9--------|-----------------|--------4-2-4----|
D:|-----------------|---------5-4-5---|-----------------|
A:|-7------------5-7|----------------X|-2X2--2-------X2/|
E:|----0----5H6H7---|-3X3---3---------|-----------------|

G:|---5------5----7-||
D:|-----------------||
A:|-3------3----5---||
E:|-----------------||

Break

G:|-----------------|-----------------||
D:|-----------------|-----------10-9--||(X4)
A:|-8-7-5-7-8-10----|-8-7-5-7-8-------||
E:|--------------8--|-----------------||

G:|-----------------|-------3/43/43/|4/34/34/34/---||
D:|-----------3-----|-----5-----------|-----------------||
A:|-6-5-3-5-6-------|-3-6-------------|-----------------||
E:|-------------1---|-----------------|-----------------||
			      Here you can use sliding vibrato
				   or hammers and pulls.

This is basically the whole song so now I will put in a few
of the fills used but do experiment with your own.
Most of the fills are played toward the end of the song.

Fill 1

G:|--------4-234----||
D:|-----------------||
A:|-2X2--2------X2/-||
E:|-----------------||

Fill 2 (Played fast listen to record carefully)

G:|--------4-2-4----|--4---4---5----7-||
D:|-----------------|-----------------||
A:|-2X2--2---------X|-2--X2--X3--X5---||
E:|-----------------|-----------------||

Fill 3

G:|---------<7>-----||
D:|-----------------||
A:|-------2-----<5>-||
E:|-3X3-3-----------||

Fill 4 (Played extremely fast)

G:|--------3--------|--------4-2-4----||
D:|----------532----|-----------------||
A:|--------------53-|-2X2--2----------||
E:|-3X3--3----------|-----------------||
            
Submit corrections

comments powered by Disqus
↑ Back to top | Incognito Bass for Sunburn. Lyrics for acoustic guitar and electric guitar. Tablatures and chords are parodies/interpretations of the original songs. You may use it for private study, scholarship, research or language learning purposes only