» » »

Incognito, Summer's Ended Bass tabs (ver.1)

Artists:  A B C D E F G H I J K L M N O P Q R S T U V W X Y Z # 

Summer's Ended Bass tabs (ver.1)

Incognito Tabs
Rating:
0/5 (0 votes)
Summer's Ended lessons Tabs too difficult? Try these video lessons and learn fast
                Intro(played softly)

G:|-----5-----------|-----8-----------||
D:|-----------------|-----------------|| repeat 4x
A:|-3-----3---5-----|-6-----6---8-----||
E:|-----------------|-----------------||

Verse(slap&pop)

G:|-----5--------5h7|-----8-----------||
D:|-----------------|-----------------||repeat 12x w/ad-lib.
A:|-3-----3---5-----|-6-----6---8-----||
E:|-----------------|-----------------||

Chorus

G:|-----------------|--------5--------|-----------------|
D:|-------5---------|------5---5------|----7-7----------|
A:|-----5---5----3--|-------------3---|-5-------7-------|
E:|-3---------3-----|-----------------|-----------------|

G:|-----------------|-----------------|-----------------|
D:|-----------------|-------7---------|------7----------|
A:|----8-8----------|-----7---7-------|----7---7-6------|
E:|-6-------6-------|-5---------------|-5---------------|

G:|-----------------|-----------------|-----------------|
D:|----7-7----------|----7-7----------|------5-6-7------|
A:|-5---------------|-5---------------|----7------------|
E:|-------------5---|------------5----|-5-----------5---|

G:|-----------------|-----------------|-----------------|
D:|----7------------|----7-7----------|-----7-7---------|
A:|------7-6--------|-5---------------|-5---------------|
E:|-5---------------|------------5----|-------------5---|

G:|-----------------|-----------------|-----------------|
D:|-------5-6-7-----|------5-6-7------|-----7-7---------|
A:|----7------------|---7-------------|-5---------------|
E:|-5------------5--|-----------------|-------------5---|

G:|-----------------|-----------------|-----------------|
D:|-----------------|-----5-5---------|-3---------------|
A:|-5-------4-------|-3--------3-5-6--|----3--------3---|
E:|-----------------|-----------------|-------1---------|

G:|-----------------|-----------------|-----------------|
D:|--------3--3-----|-----3--3--------|-----------------|
A:|-3--1------------|-1---------1-----|----7--7---------|
E:|-------------1---|-----------------|-5---------------|

             slapped...
G:|-----------------||
D:|-----------------||
A:|----------0-1-2--||
E:|-5---------------||

Variations on the chorus 2nd time played.

Samba

G:|-----------------|-----------------||
D:|---5-5-----7-7---|---8-8-----1010--|| repeat 16x w/ad-lib.
A:|-3-----3-5-----5-|-6-----6-8------8||
E:|-----------------|-----------------||

Vibrato Riff

G:|------12-12/1312/1312/1312/1312|
D:|---12------------------------------|
A:|10---------------------------------|
E:|-----------------------------------|

G:|----5-5/65/65/65/65|----7-7/87/87/87/87|
D:|--5--------------------|--7--------------------|
A:|3----------------------|5----------------------|
E:|-----------------------|-----------------------|

G:|----7-7/87/87/87/87||
D:|--7--------------------|| repeat 4x
A:|5----------------------||
E:|-----------------------||

The vibrato can be done using hammers & pulls but it is done
on the record as sliding.

7 bars of keys, drums & flute...

Outro (in free time)

G:|-----------------|-----9/11-11/1211-9-11-9----------||
D:|-----------------|---9----------------------9--------||
A:|-5--6--8...------|-7--------------------------9-7---0||
E:|-----------------|-----------------------------------||
            
Submit corrections

comments powered by Disqus
↑ Back to top | Incognito Bass for Summer's Ended. Lyrics for acoustic guitar and electric guitar. Tablatures and chords are parodies/interpretations of the original songs. You may use it for private study, scholarship, research or language learning purposes only