» » »

Incognito, Stay Mine Bass tabs (ver.1)

Artists:  A B C D E F G H I J K L M N O P Q R S T U V W X Y Z # 

Stay Mine Bass tabs (ver.1)

Incognito Tabs
 Rating:
4/5 (4 votes)
Stay Mine lessons Tabs too difficult? Try these video lessons and learn fast
1
                Intro/Chorus

G:|-----------------|-----------------|-----------------|
D:|-----------------|-----------------|-----------------|
A:|-5-5-345-5-3-----|-----567-7-------|---------------5-|
E:|-------------5-3-|-0-0------------0|6-6---56-56--8---|

G:|-----------------|-----------------|-----------------|
D:|-----------------|-------3---------|-----------------|
A:|---8-------------|-5-5-35-53-------|-----567-575-----|
E:|-8-----345-5-----|-----------5-3---|-0-0---------7---|

G:|-----------------|-----------------||
D:|-----------------|-----------------||
A:|-------------5---|-5---------------||
E:|-6-6--5-66-8-----|---8-8--6-6--5-5-||

M8

G:|-----------------|-----------------||
D:|-----------------|-----------------||
A:|-5-5-3-3---------|-5-5-3-3--------3||
E:|---------6-6-5-5-|---------6-6-6-5-||

Verse

G:|-----------------|-----------------|-----------------|
D:|-----------------|-----------------|-----------------|
A:|-5-5-3-3---3-5---|--------------3--|-5-5-3-3---3-5---|
E:|---------5-----3-|-3-5-5-6-6--35-5-|---------5-----3-|

G:|-----------------||
D:|-----------3-1---|| Repeat 3x
A:|---------------3-||
E:|-3-5-5-6-6-------||

G:|-----------------|-----------------|-----------------|
D:|-----------------|-----------------|-----------------|
A:|-5-5-3-3---3-5---|---------------3-|-5-5-3-3---------|
E:|---------5-----3-|-3-5-5-6-6-3-5---|---------5-5--3--|

G:|----5------------||
D:|-----------------||
A:|-3----3-3-4-5----||
E:|---------------5-||

Break

G:|-----------------|-----------------|-----------------|
D:|--------------5--|------5-5-5-5----|--------------5--|
A:|-----2-3-4-4H5---|-----5-5---------|-------2-3-4H5---|
E:|-3--3-3-3-3------|-3---------------|-3----3-3--------|

G:|-----------------|-----------------|-----------------|
D:|-----2----------5|-------------5---|----x5--------5--|
A:|-----------------|-----2-3-4H5-----|-------2-3-4h5---|
E:|-3----0-1-0-2-0--|-3--3-3----------|-3---------------|

G:|-----------------|-----------------||
D:|-----------------|-5-------x2--x3--||
A:|---x2-x3-x3H4----|-----------------||
E:|-3---------------|------------0---1||

Structure
*********

Intro/Chorus
M8
Verse
Intro/Chorus
M8
Verse
Intro/Chorus
M8
Break
Intro/Chorus (repeat till end)

That's it. I will also be tabbing many more songs from the
new album so stay tuned.
            
Submit corrections

comments powered by Disqus
↑ Back to top | Incognito Bass for Stay Mine. Lyrics for acoustic guitar and electric guitar. 1 Tablatures and chords are parodies/interpretations of the original songs. You may use it for private study, scholarship, research or language learning purposes only