» » »

Incognito, Deep Waters Bass tabs (ver.1)

Artists:  A B C D E F G H I J K L M N O P Q R S T U V W X Y Z # 

Deep Waters Bass tabs (ver.1)

Incognito Tabs
 Rating:
4/5 (4 votes)
Deep Waters lessons Tabs too difficult? Try these video lessons and learn fast
1
                Verse Riff(also used as intro)

G:|-----------------|-----------------|
D:|-------4--6/8-4-6|-----------------|repeat 2 times
A:|----6-6-6--------|-----------------|
E:|4-4--------------|-4-4-----4-2-4---|

G:|-------4--6/8-4-6|-----------------|-----------------|
D:|----6-6-6--------|-----------------|------------4----|
A:|4-4--------------|-4-4-----4-2-4---|----------4------|
E:|-----------------|---------------43|2-2---2--2-2-2-24|

G:|-----------------||
D:|-----------------|| W/ad-lib.
A:|----------5h6----||
E:|5-5---55---------||

Bridge

G:|-----------------|-----------------|-----------------|
D:|-----------------|-----------------|-----------------|
A:|7-7----9--7------|---------------34|5-5----7--5----7-|
E:|------7--7-----23|4-4---4--2h4-----|------5--5----5--|

   1st time
G:|-----------------|
D:|----------------.|
A:|-4-4------5-4---.|
E:|-----1-1-5----3-1|

   2nd time
G:|-----------------||
D:|-----------------||
A:|-4--------4h56---||
E:|-------2---------||

Chorus

G:|-----------------|-----------------|-----------------|
D:|-----------------|-----------------|-----------------|
A:|-------------4---|---------------23|4--4--2-4--4---23|
E:|4--4--2-4--4--4-2|0--0---0--x0-----|-----------------|

G:|-----------------||
D:|-----------------|| Repeat W/ad-libs
A:|4--4-------4-----||
E:|------5-----22-33||

M8

G:|-----------------|-----------------
D:|-----------------|-------9--ad-lib.
A:|-----------------|-----------------
E:|-7--7--77--x7----|-7--7------------
            
Submit corrections

comments powered by Disqus
↑ Back to top | Incognito Bass for Deep Waters. Lyrics for acoustic guitar and electric guitar. 1 Tablatures and chords are parodies/interpretations of the original songs. You may use it for private study, scholarship, research or language learning purposes only