» » »

Incognito, Cut It Loose Bass tabs (ver.1)

Artists:  A B C D E F G H I J K L M N O P Q R S T U V W X Y Z # 

Cut It Loose Bass tabs (ver.1)

Incognito Tabs
 Rating:
4/5 (4 votes)
Cut It Loose lessons Tabs too difficult? Try these video lessons and learn fast
1
                Intro

G:|-----------------|-----------------|-----------------|
D:|--------4---4----|--------4--------|--------4---4----|
A:|------2---02--x5h|7------5--x5h7---|------2---02--x5h|
E:|-0--3------------|--x5h7---------33|-0--3------------|

G:|-----------------||
D:|-----------------||
A:|7------5-7-------||
E:|--x5h7-----------||

Verse

G:|-----------------|-----------------|-----------------|
D:|--------4---4----|--------4--------|--------4---4----|
A:|------2---02--x5h|7------5--x5h7---|------2---02--x5h|
E:|-0--3------------|--x5h7---------33|-0--3------------|

G:|-----------------|-----------------|-----------------|
D:|--------4--------|-------------7/9-|--------------4--|
A:|7------5-x5h7----|-------5/7-7-----|-9---------------|
E:|--x5h7-------0-23|-5---------------|----------2--2--2|

G:|-----------------|-----------------||
D:|--------4---4----|--------4--------||x2
A:|------2---02--x5h|7------5--x5h7---||
E:|-0--3------------|--x5h7---------33||

Chorus

G:|--------------2--|-----------------|-----------------|
D:|---------------2-|-----------------|--------4---4----|
A:|-0--------------0|-3--------2------|------2---02--x5h|
E:|-----------------|-----------------|-0--3------------|

G:|-----------------|-----4-----2-----|-----4-----------|
D:|-------4---------|---4---------2---|---4-------------|
A:|7-----5--x5h75-01|-2-----0-0-----0-|-2-----0-----012-|
E:|-x5h7------------|-----------------|-----------------|

G:|-----------------|-----------------|-------5---------|
D:|--------4---4----|-------4---------|-----5-----------|
A:|------2---02--x5h|7-----5--x5h7-012|-3--------2-2-0-2|
E:|-0--3------------|-x5h7------------|-----------------|

G:|-----5-----234---|-----------------|-----------------||
D:|---5-----4----4--|--------4---4----|-----------------||
A:|-3-----2--------2|------2---02--x5h|7------5-7-------||
E:|-----------------|-0--3------------|--x5h7-----------||

M8

Note:Here just play E to the established rhythm for 16 bars
then to the Changed Chorus.

Changed Chorus

G:|--------------2--|-----------------|-----------------|
D:|---------------2-|-----------------|--------4---4----|
A:|-0--------------0|-3--------2------|------2---02--x5h|
E:|-----------------|-----------------|-0--3------------|

G:|-----------------|-------2/42-----|-----------------|
D:|-------4---------|-----2-------2---|-----------------|
A:|7-----5--x5h7----|-0------------0-2|-3-------2----02-|
E:|-x5h7---------023|-----------------|-----------------|

G:|-----------------|-----------------|-----4--------23-|
D:|--------4---4----|-------4---------|---4-------------|
A:|------2---02--x5h|7-----5--x5h7--01|-2-----0----0----|
E:|-0--3------------|-x5h7------------|-----------------|

G:|-4-2-------------|-----------------|-----------------|
D:|-----42---4h54-2-|--------4---4----|---------4-------|
A:|-------0-0-------|------2---02--x5h|7-------5--x5h75-|
E:|-----------------|-0--3------------|---x5h7----------|

G:|-----5-----234---|-----------------|-----------------|
D:|---5-----4-----4-|-----------------|--------4---4----|
A:|-3-----2--------2|-3---3-2--0h2----|------2---02--x5h|
E:|-----------------|---0-------------|-0--3------------|

G:|-----------------||
D:|--------4--------||Back to M8
A:|7------5--x5h7---||
E:|--x5h7-----------||
            
Submit corrections

comments powered by Disqus
↑ Back to top | Incognito Bass for Cut It Loose. Lyrics for acoustic guitar and electric guitar. 1 Tablatures and chords are parodies/interpretations of the original songs. You may use it for private study, scholarship, research or language learning purposes only