>
 >
Cool Complaint

Cool Complaint Guitar Tabs

Incognito - Cool Complaint chords, tabs, tablatures, lyrics

Guitar lessons | Add/correct | Request | Top 50 tabs Artists:  A B C D E F G H I J K L M N O P Q R S T U V W X Y Z 0-9

Cool Complaint Guitar Tabs – Incognito

CD, Sheet music, Poster

Do you like Cool Complaint? Share with your friends now
Tabs
let as much ring as possible in intro
P.M. palm mute
~~~~ vibrate string
 /   slide up or down
 h   hammer on 
 p   pull off
                                     INTRO

e|--------------------------------------------------------------------------|
B|--------------------------------------------------------------------------|
G|--------------------------------------------------------------------0-----|
D|0h1-----1--3--1-------1--3--------0----------1--3--1-------1--3-----------|
A|-----3-------------3-----------1----------3-------------3--------1--------|
E|--------------------------------------------------------------------------|

e|--------------------------------------------------------------------------|
B|--------------------------------------------------------------------------|
G|----------------------------------------------------------------0---------|
D|----1--3--1-------1--3--------0----------1--3--1-------1--3---------------|
A|-3-------------3-----------1----------3-------------3--------1------------|
E|--------------------------------------------------------------------------|

e|--------------------------------------------------------------------------|
B|--------------------------------------------------------------------------|
G|-------3--0----------3--1--0----------3--0-------0--1--0-----------3--0---|
D|----1-------------1----------------1----------3-----------1-----1---------|
A|-3-------------3----------------3----------------------------3------------|
E|--------------------------------------------------------------------------|

e|--------------------------------------------------------------------------|
B|--------------------------------------------------------------------------|
G|------3--1--0----------3--0--------0--1--0--------------------------------|
D|---1----------------1-----------3-----------3--1----0----0h1p0------------|
A|3----------------3-----------------------------------------------3--------|
E|--------------------------------------------------------------------------|

e|--------------------------------------------------------------------------|
B|--------------------------------------------------------------------------|
G|------0--------1--------3--------3--------0--------1--------3--------3----|
D|---1--------0--------3--------1--------1--------0--------3--------1-------|
A|3--------3--------1--------1--------3--------3--------1--------1----------|
E|--------------------------------------------------------------------------|

e|--------------------------------------------------------------------------|
B|--------------------------------------------------------------------------|
G|------0--------1--------3--------3--------0--------1--------3--------3----|
D|---1--------0--------3--------1--------1--------0--------3--------1-------|
A|3--------3--------1--------1--------3--------3--------1--------1----------|
E|--------------------------------------------------------------------------|

e|--------------------------------------------------------------------------|
B|--------------------------------------------------------------------------|
G|1----3----1----0----------------------------------------------------------|
D|--------------------------------------------------------------------------|
A|--------------------------------------------------------------------------|
E|--------------------------------------------------------------------------|
                                  AFTER
  guitar 1           
e|-----------------------------------------------------------------|
B|-----------------------------------------------------------------|
G|-----------------------------------------------------------------|
D|----1-----1---1-----1-----1---1-----0-----0---0-----0-----0---0--|
A|3-3---3-3---3---3-3---3-3---3---3-3---3-3---3---3-3---3-3---3----|
E|-----------------------------------------------------------------|
 ______________________P.M.________________________________________ 

e|-----------------------------------------------------------------|
B|-----------------------------------------------------------------|
G|-----------------------------------------------------------------|
D|1-1-1-1-1-1-1-1-0-0-0-0-1-1-1-1-3-3-3-3-3-3-3-3-1-1-1-1-1-1-1-1--|
A|3-3-3-3-3-3-3-3-3-3-3-3-3-3-3-3-3-3-3-3-3-3-3-3-3-3-3-3-3-3-3-3--|
E|-----------------------------------------------------------------|
 ____________________P.M.__________________________________________ 
                     (repeat above once more)
 guitar 2 (play in time with guitar 1)
e|--------------------------------------------------------------------------|
B|--------------------------------------------------------------------------|
G|--------------------------------------------------------------------------|
D|1-----------let ring-----------0-----------let ring-----------------------|
A|3-----------let ring-----------3-----------let ring-----------------------|
E|--------------------------------------------------------------------------|

e|--------------------------------------------------------------------------|
B|--------------------------------------------------------------------------|
G|--------------------------------------------------------------------------|
D|1--------------0--------1-------3---------------1-------------------------|
A|3--------------3--------3-------3---------------3-------------------------|
E|--------------------------------------------------------------------------|
                    let chords ring
                (idea)
e|--------------------------------------------------------------------------|
B|--------------------------------------------------------------------------|
G|--------------------------------------------------------------------------|
D|--0-1-0---0-1-0---0-1-0---0-1-0---0-1-0---0-1-0---0-1-0---0-1-0-----------|
A|3-------3-------1-------1-------0-------0---------------------------------|
E|------------------------------------------------3-------3-----------------|

 ______________________________________P.M.__________________________________

e|--------------------------------------------------------------------------|
B|--------------------------------------------------------------------------|
G|--------------------------------------------------------------------------|
D|--0-1-0---0-1-0---0-1-0---0-1-0---0-1-0---0-1-0---0-1-0---0-1-0-----------|
A|3-------3-------1-------1-------0-------0---------------------------------|
E|------------------------------------------------3-------3-----------------|
 _____________________________________P.M.__________________________________

e|--------------------------------------------------------------------------|
B|--------------------------------------------------------------------------|
G|--------------------------------------------------------------------------|
D|---0h1p0---0----------------0h1p0---0---3-1--------------3-2-3-2~~~~~-----|
A|-3-------1---0------------3-------1---0-----5~~~--1-----------------------|
E|------------------3/5-3~~~------------------------------------------------|

e|--------------------------------------------------------------------------|
B|--------------------------------------------------------------------------|
G|-----------0--------------------------------------------------------------|
D|-----3-2-3---3~~~~--------------------------------------------------------|
A|1-------------------------------------------------------------------------|
E|--------------------------------------------------------------------------|





Comments


Popular Incognito tabs & chords
Centre Of The Sun Bass Tabs
Colibri Bass Tabs
Colibri 1 Bass Tabs
Jacob's Ladder Bass Tabs
Marrakech Bass Tabs
Smiling Faces Bass Tabs
Stay Mine Bass Tabs
Summer's Ended Bass Tabs
Sunburn Bass Tabs
Still A Friend Of Mine Tabs


Song lyrics



↑ Back to top | Tablatures and chords are parodies/interpretations of the original songs. You may use it for private study, scholarship, research or language learning purposes only
© 2014 AZChords.com Contact us | Privacy policy | DMCA | Add/correct tabs | Request tabs | Top 50 tabs