» » »

Incognito, Colibri Bass tabs (ver.1)

Artists:  A B C D E F G H I J K L M N O P Q R S T U V W X Y Z # 

Colibri Bass tabs (ver.1)

Incognito Tabs
 Rating:
4/5 (4 votes)
Colibri lessons Tabs too difficult? Try these video lessons and learn fast
                -------------------------------------------------------------------------------
-------------------------------------------------------------------------------

Tuning: E-A-D-G

Come in at 0:24


Riff A:

   S S S S S S S S Q E S S E E S S S S Q S S S S S S S S S S S S S S E 
G|---------------------------------------------------------------------|
D|-------------------------------------------------0-1-2---------------|
A|---5-6-7---------------3-5-3-5---------------------------------------|
E|-0---------3-4-5----------------1-2-3----2-1-0-----------3-4-5---3-5-|

   E S S E E S S S S S S S S T T T T T T
G|---------------------------------------|
D|-----2-------------------5-3/4\3/4\3/4-| 1st Ending
A|-------5-3-5---------3-5---------------| (The slides are left out sometimes)
E|-------------1-2-3---------------------|

   S E S S E S E S S E
G|-------------------5-|
D|---------5---5-8-----| 2nd Ending
A|---5-8---------------|
E|---------------------|


Riff B:

   S S S S S S S S W Q S S S S S S S S S S S S S S E W Q E S S S T T T T T T   
G|--------------------------------------- -----------------------------------|
D|-------------------------------0-1-2-------------------------5-3/4\3/4\3/4-|
A|---5-6-7-------------------------------------------------3-5---------------|
E|-0---------3-4-5-------2-1-0-----------3-4-5---3-5-------------------------|

Now here's the really hard part...

Riff C:

   S S E S S S S E E S S E E S S S S S S E E S S S E E S S S S E E  S  S 
G|-----------------------------------------------------------------10/10-|
D|------------------------------------------------------------------9/11-|
A|---------------------3-5-3-5---------------3-4-5-5-----5---3-5---------|
E|-3-3-----3---1-3-------------1-2-3---1-3-------------------------------|


    E E  E S S S S S S S S E S S E E S S S S E S S S S S E E S S S S E
G|-------------------------------5-------------------------------------|
D|---------------------------------------------4-5---------------------|
A|-------------------------5-5-3-------3---2-3-------5-3-3-----3---2-3-|
E|-10-8-10-0-1-2---1-2-3-5-------------------------3-------------------|


   S S S S S e E S S S S E S S S S   H Q
G|---------------------------------|--------|
D|---------------------------------|---5----|
A|-3-3-5-6-7-7-----7---5-7---7-----|--------|
E|-----------------------------5-6-|-7------|


The song goes like this: 

9x Riff A with 1st Ending
1x Riff A with 2nd Ending
7x Riff A with 1st Ending
1x Riff A with 2nd Ending
1x Riff B
1x Riff C
5x Riff A with 1st Ending
2x Riff C
3x Riff A with 1st Ending
1x Riff A with 2nd Ending
4x Riff A with 1st Ending
1x Riff A with 2nd Ending

Awesome Song and really cool baseline.. it's not easy but you gonna make it!




===============================================================================
| /  slide up
| \  slide down
| h  hammer-on
| p  pull-off
| ~  vibrato
| +  harmonic
| x  Mute note
|
| W = Whole
| H = Half
| Q = Quarter
| E = 8th
| S = 16th
| T = 32nd
===============================================================================
            
Submit corrections

comments powered by Disqus
↑ Back to top | Incognito Bass for Colibri. Lyrics for acoustic guitar and electric guitar. Tablatures and chords are parodies/interpretations of the original songs. You may use it for private study, scholarship, research or language learning purposes only