>
 >
After The Fall

After The Fall Bass Tabs

Incognito - After The Fall chords, tabs, tablatures, lyrics

Guitar lessons | Add/correct | Request | Top 50 tabs Artists:  A B C D E F G H I J K L M N O P Q R S T U V W X Y Z 0-9

After The Fall Bass Tabs – Incognito

CD, Sheet music, Poster

Do you like After The Fall? Share with your friends now
Bass Tabs
G:|-----------------|-----------------|--------------------|
D:|-----------------|-----------------|------------------16|
A:|-----------------|-----------------|----------14H16H17--|
E:|-----------------|-----------------|--------------------|

G:|-18-18-14-14-----|-----------------||
D:|-------------16--|-----------------||
A:|-----------------|----------------3||
E:|-----------------|-----------------||

Verse(1ST TIME)

G:|-----------------|-----------------|-----------------|
D:|-----------------|------5----------|-----------------|
A:|-2--x--2-x-2-----|----3----3-------|-----------------|
E:|----------------2|-3----------3-x3-|-0---x---3---x---|

		     W/Guitar
G:|-----------------||-----------------|-----------------|
D:|-----------------||-----------------|------4/54------|
A:|-------------3---||-2--x--2-x-2-----|----3-------3----|
E:|-5---x--3H5------||---------------2-|-3------------3--|

G:|-----------------|-----------------|-----------------|
D:|-----------------|-----------------|-----------------|
A:|-----------------|-------------5---|-----------------|
E:|-0---x---3---x---|-5---x---x5------|-3--x--3-3----3--|

G:|-----------------|-----------------|-----------------|
D:|------x-7-7-x----|-----------------|-----------------|
A:|--------------7--|-6---6--7---7----|------------3----|
E:|-5-x-------------|-----------------|-5---------------|

W/Variations
G:|-----------------|-----------------|-----------------|
D:|-----------------|-------4/54-----|-----------------|
A:|-2--x--2-x-2-----|----3--------3---|-----------------|
E:|---------------2-|-3-------------3-|-0---x---3---x---|

G:|-----------------|-----------------|-----------------|
D:|------5/65------|-----------------|-----------------|
A:|----7-------7-5--|-----------------|-----------------|
E:|-5x--------------|-3--x--3-3----3--|-5-5----5-5------|

G:|-----------------|-----------------||
D:|-----------------|-----------------||
A:|-6--------7------|-----------------||
E:|-----------------|-6---------------||

Slap & Pop Section(X2)

G:|-----------------|-----5/6-6/7-----||
D:|---9---9---9-----|---7-------------||
A:|-----------------|-----------------||
E:|-7--5/7--7--7-9-|-5-------------5/||

Break(Slapped & Popped)

G:|-----------------|-----------------|-----------------|
D:|-----------------|--5--------------|---5-------------|
A:|-----------------|-----------------|-----------------|
E:|-0---0---0--00-2/|3----3----3---33-|-3----3---3---33-|

G:|-------------3/4|-----------------|---x-------------|
D:|---5-------------|---7-------------|-----------------|
A:|-----------------|-----------------|-3---3---3---3-3-|
E:|-3----3---3------|-5----5--5---5-5-|-----------------|

G:|-----------------|-----------------|-----------------||
D:|---5-------------|-----------------|-----------------||
A:|-----------------|-------------2---|2/9--------------||
E:|-3---3--3----33--|-2---------------|-----------------||

Verse(Slapped & Popped)

G:|---x---x--4H6---|---------2H4-----|-----------------|
D:|-----------------|---x---x---------|---x--------x----|
A:|-2---2-----------|-----------------|-----------------|
E:|-----------------|-3---3-----------|-0---x---3----x--|

G:|-----------------|-----------------|-----------------|
D:|---7-----7-------|---5--3H5--------|---7--------7----|
A:|------------5----|-----------------|-----------------|
E:|-5----5----------|-3--------3-x3---|-5-------5---x5--|

G:|-----------------|-----------------||
D:|-----------------|-----------------||
A:|-6--------7------|---------------3-||
E:|-----------------|-5---------------||

Verse(Outro)

G:|-----------------|-----------------|-----------------|
D:|-----------------|--------4/54----|-----------------|
A:|-2---x---2--x2---|------3-------3--|-----------------|
E:|----------------2|-3-x3-----------3|-0----x---3--x---|

G:|-----------------|-----------------|-----------------|
D:|-----77-x-77-----|-----------------|------77---------|
A:|---7---------7-5|-----------------|----7-----7------|
E:|-5---------------|-3---x-33-----3--|-5---------------|

				      Played in free time.
G:|-----------------|-----------------|-----------------|
D:|-----------------|-----------------|-----------------|
A:|-6-------7-------|-----------------|-3---------------|
E:|-----------------|-4---------------|-----2-----1-----|

   Let note ring...
G:|-----------------||
D:|-----------------||
A:|-2---------------||
E:|-----------------||





Comments


Popular Incognito tabs & chords
Centre Of The Sun Bass Tabs
Colibri Bass Tabs
Deep Waters Bass Tabs
Jacob's Ladder Bass Tabs
Smiling Faces Bass Tabs
Still A Friend Of Mine Bass Tabs
Where Did We Go Wrong Bass Tabs
Goodbye To Yesterday Chords
Cool Complaint Tabs
Still A Friend Of Mine Tabs


Song lyrics



↑ Back to top | Tablatures and chords are parodies/interpretations of the original songs. You may use it for private study, scholarship, research or language learning purposes only
© 2014 AZChords.com Contact us | Privacy policy | DMCA | Add/correct tabs | Request tabs | Top 50 tabs