» » »

Scream Bloody Gore Tabs (ver.1)

Artists:  A B C D E F G H I J K L M N O P Q R S T U V W X Y Z # 

Scream Bloody Gore Tabs (ver.1)

Incantation
Rating:
0/5 (0 votes)

Tabs too difficult? Try these video lessons and learn fast.
                                        INCANTATION - SCREAM BLOODY GORE 
             From the Album - THE FORSAKEN MOURNIG OF ANGELIC ANGUISH 
                         Copyright: RELASPE RECORDS 1997 
                           Version 1.0 - MAR 15, 2002 

                         Originally preformed by - DEATH 
                           ~~R.I.P Chuck Schuldiner~~ 


For Questions, Comments, Newest Version, or Corrections contact 


.  - palm mute           /  - slide up to 
\  - slide down to       ~  - vibrato 
h  - hammer on           b  - Bend 
p  - pull off            Suffixes for bend 
t  - tap                 f  - full bend    h - half bend 
ph - pinched harmonic    q  - quarter bend t - tap bend 
*  - see comment         ^  - Hold bend    r release bend 
x  - Stuccatto           ~  - vibrato bend 
,  - slight palm mute    () - ghost note, sustained note 
"  - tremolo note        <> - Trill 

TUNNING "C"F"A#"D#"G"C" 

Riff 1-A 
|--------------------------------------------------|
|--------------------------------------------------|
|--------------------------------------------------|Gtr  
|--2--3--5--6--2--3--5--6--2--3--5--6--2--3--5--6--| I 
|--2--3--5--6--2--3--5--6--2--3--5--6--2--3--5--6--| 
|--0--1--3--4--0--1--3--4--0--1--3--4--0--1--3--4--| 

Riff 1-B
|--------------------------------------------------| 
|--------------------------------------------------| 
|--------------------------------------------------|Gtr
|-----3--5--6-----3--5--6-----3--5--6-----3--5--6--|II 
|-----3--5--6-----3--5--6-----3--5--6-----3--5--6--| 
|-000-1--3--4-000-1--3--4-000-1--3--4-000-1--3--4--| 
  ...         ...         ...         ...

Riff 2 
|--------------------------------------------| 
|--------------------------------------------| 
|--------------------------------------------| 
|--------------------------------------------| 
|--3322------3322------5544------7766--------| 
|------111111----111111----555555----777777--| 

Riff 3 
|-----------------------------------|----------------------------------| 
|-----------------------------------|----------------------------------| 
|------9--10---9---7---9------------|-----9--10---9---7---9------------|Gtr 
|--7---7---8---7---5---7--10---9----|-7---7---8---7---5---7--10---9----|I 
|--5-----------------------8---7----|-5-----------------------8---7----| 
|-----------------------------------|----------------------------------| 

|-----------------------------------|----------------------------------| 
|-----------------------------------|----------------------------------| 
|-----------------------------------|----------------------------------|Gtr  
|------77778888777755557777---------|-----77778888777755557777---------|II 
|--5555--------------------88887777-|-5555--------------------88887777-|
|-----------------------------------|----------------------------------| 

Riff 4-A 
|--------------------------------------------| 
|--------------------------------------------| 
|--------------------------------------------| 
|--2-------3-------776666776666776666776776--| 
|--2-------3---------------------------------| 
|--0-------1---------------------------------| 

Riff 4-B 
|--------------------------------------------| 
|--------------------------------------------| 
|--------------------------------------------| 
|------------------776666776666776666776776--| 
|--------------------------------------------| 
|--0000000011111111--------------------------| 

Riff 5 
|---------------------------------|----------------------------| 
|---------------------------------|----------------------------| 
|---------------------------------|----------------------------| 
|--5----8----5------7----8--------|---7----8----5------7----8--| 
|--7----6----3------5----6----7---|---5----6----3------5----6--| 
|-----------------------------5---|----------------------------| 

Riff 6 
|--------------------------------------------------| 
|--------------------------------------------phph--| 
|--------------------------------------phphph4-3---| 
|--------------------------------------2-3-2-------| 
|--7-----7-----6-----6-----7-----7-----------------| 
|--5-0-0-5-0-0-4-0-0-4-0-0-5-0-0-5-0-0-------------| 
     . .   . .   . .   . .   . .   . . 
|--------------------------------------------------| 
|--------------------------------------------phph--| 
|--------------------------------------phphph4-3---| 
|--------------------------------------2-3-2-------| 
|--7-----7----10----10-----7-----7-----------------| 
|--5-0-0-5-0-0-8-0-0-8-0-0-5-0-0-5-0-0-------------| 
     . .   . .   . .   . .   . .   . . 

Riff 7 
|----------------------------------------------------------------------------| 
|----------------------------------------------------------------------------| 
|----------------------------------------------------------------------------| 
|----------7-9---------7-9---------7-9---------7-8---------------------------| 
|----7-9-6-------7-9-6-------7-9-6-------7-9-6-------------------------------| 
|--6-----------6-----------6-----------6-----------666666666666666666666666--| 

Riff 8 (Solo Riff) 
|--------------------------------------------------------------------| 
|--------------------------------------------------------------------| 
|--------------------------------------------------------------------| 
|--------------------------------------------------------------------| 
|--------------------------------------------------------------------| 
|--9999999999999999777777777777777766666666666666666666666666666666--| 

Note: Sorry about the craming of the notes for the fast part of 
      the solo. They repeat as followed: 12, 14, 16, 14 ect... 

Solo (D#Eb Locrian)
|---------------------------12-14-16-12141614121416141214161412141614- 
|--------------------7-9-10------------------------------------------- 
|--------------6-8-9-------------------------------------------------- 
|--------6-7-9-------------------------------------------------------- 
|--6-7-9-------------------------------------------------------------- 
|--------------------------------------------------------------------- 

-121416141214161412141614121416141214161412141614--------------------- 
---------------------------------------------------12/10--9-7---------
--------------------------------------------------------------9~--8-6- 
----------------------------------------------------------------------
---------------------------------------------------------------------- 
---------------------------------------------------------------------- 

------------------------------1212^-1414^-1616^-1717^-(17)--| 
--------------------------------bf----bf----bf----bf--------| 
----------------------6-8-9~--------------------------------| 
-9-7-6----------6-7-9---------------------------------------| 
--------9-7~/-9---------------------------------------------| 
------------------------------------------------------------| 


This song has been transcribed in memory of Chuck Schuldiner (R.I.P.) 
You were a true brother of metal and will not be forgotten. You will 
be with us eternally. Farwell, Chuck...
            
Tabs too difficult? Try these video lessons and learn fast.


comments powered by Disqus
↑ Back to top | Tablatures and chords are parodies/interpretations of the original songs. You may use it for private study, scholarship, research or language learning purposes only