» » »

Incantation, Desecration Tabs (ver.1)

Artists:  A B C D E F G H I J K L M N O P Q R S T U V W X Y Z # 

Desecration Tabs (ver.1)

Incantation Tabs
 Rating:
4/5 (4 votes)
Desecration lessons Tabs too difficult? Try these video lessons and learn fast
1
                Incantation- "Desecration (of the Heavenly Graceful)-Diabolical Conquest

C-tuning

Guitar 1
Riff 1
|------------------|
|------------------|
|-----------------.|
|-----------------.|
|--43--1--2-76-87--|
|05--02-03-0--0----| etc.

Guitars 2 and 3
Riff 2
|------------------||------------------||------------------||------------------|
|------------------||------------------||------------------||------------------|
|------------------||------------------||------------------||------------------|
|------------------||5-----------------||------------------||------------------|
|4-----------------||3-----------------||4---------4-4-4-44||2---------2-2-2-22|
|2-----------------||3-----------------||2---------2-2-2-22||0---------0-0-0-00|
                                              P.M.[--------]      P.M.[--------]

|------------------||------------------||------------------||------------------|
|------------------||------------------||------------------||------------------|
|------------------||------------------||------------------||------------------|
|------------------||5---------5-5-5-55||------------------||------------------|
|4---------4-4-4-44||3---------3-3-3-33||4---------4-4-4-44||2---------2-2-2-22|
|2---------2-2-2-22||3---------3-3-3-33||2---------2-2-2-22||0---------0-0-0-00|
      P.M.[--------]      P.M.[--------]      P.M.[--------]      P.M.[--------]


|------------------||------------------||------------------||------------------|
|------------------||------------------||------------------||------------------|
|------------------||------------------||------------------||------------------|
|------------------||5---------5-5-5-55||------------------||------------------|
|4---------4-4-4-44||3---------3-3-3-33||4---------4-4-4-44||2-----------------|
|2---------2-2-2-22||3---------3-3-3-33||2---------2-2-2-22||0-----------------|
      P.M.[--------]      P.M.[--------]      P.M.[--------]      


Guitar 1
Riff 3
|------------------|
|------------------|
|------------------|
|------------------|
|-2203-2201-220301-|
|------------------|

Guitars 2 and 3
Riff 4
|------------------|
|------------------|
|------------------|
|4----4----4-------|
|2----2----2-------|
|------------------|

Guitars 2&3
Riff 5               
|--------------------|
|--------------------|
|--------------------|
|2225552225552225421-|
|--------------------|
|--------------------|
           
Riff 6
|-----------------|
|-----------------|
|-444-----444-----|
|-----------------|
|2---23332---20111|
|-----------------|

Riff 7
|----------------|
|----------------|
|----------------|
|---5--------5---|
|----------------|
|333-3444333-3222|

Riff 8                  
|--------------------|  
|--------------------|
|--------------------|
|--------------------|
|-3336663336663336532|
|--------------------|


Riff 9     Riff 10                    
|--------||-------------------||--------------------------------|
|--------||-------------------||--------------------------------|
|--------||-------------------||--------------------------------|
|--6-----||-------6-----------||-9-----------9------------6-----|
|5-4-5-4-||-5-8-7-4-5-4--5-8-7||-7-8-4-5-8-7-7--8-4-5-8-7-4-5-4-|
|3---3-2-||-3-6-5---3-2--3-6-5||---6-2-3-6-5----6-2-3-6-5---3-2-|    

Riff 11                      1st   2nd
|---------------------------||---||----------|
|---------------------------||---||----------|
|---------------------------||---||----------|
|9-------------9------------||6--||6----6-8--|
|7-8-7-8-11-10-7-8-7-8-11-10||4-5||4-55-4-6-7|
|--6-5-6-9--8----6-5-6-9--8-||--3|| -33-----5|

Riff 12
Guitars 2 and 3
|-----------------------------------------||------------------------------|
|-----------------------------------------||------------------------------|
|-----------------------------------------||------------------------------|
|-----------------------------------------||---------------4--------------|
|7--------8--------2----------------------||--3------------2-----------2--|
|5--------6--------0----------------------||--1------------------------0--|

Riff 13
Guitar 1
|--------------------------------------------|
|--------------------------------------------|
|------999------555------999101010777999555--|
|--777------777-------777--------------------|
|--------------------------------------------|
|--------------------------------------------|


Riff 14
|------------------||----|
|------------------||----|
|------------------||----|
|--------------4---||----|
|3--4--2----3--2--2||-/-/|
|5--6--0----1-----0||-/-/|
                    {    }
                    (pick scr*pes)

Riff 15
|------------------------||-------------------------|
|------------------------||-------------------------|
|------------------------||-------------------------|
|------------------------||-------------------------|
|---777---777---888---888||---777---777-------------|
            
|555---555---666---666---||555---555---444111333000-| 

Riff 16
|------------------------||-------------------------|
|------------------------||-------------------------|
|------------------------||-------------------------|
|------------------------||-------------------------|
|---555---555---666---666||---555---555-666333555222|            
|333---333---444---444---||333---333----------------|
                    

Riff 17
|-----------------||------------|
|-----------------||------------|
|-----------------||------------|
|-----------------||------------|
|4-3-----87-----54||---444666---|
|2-1-----65-----32||333------555| 
                                    End on: 
|-----------------||---------------||-----|
|-----------------||---------------||-----|
|-----------------||---------------||-----|
|-----------------||777---666------||-----|
|4-3-----87-----54||---888---------||-3---|
|2-1-----65-----32||---------101010||-1---| 


Riff 1-play 12x while Riff 2 joins 2nd time
Riff 2-plays 1x
Riff 3-plays 1x w/ Riff 4-1x
Riff 5-2x
Riff 6-2x
Riff 5-2x
Riff 7-2x
Riff 8-2x
Riff 7-2x
Riff 8-2x
Riff 7-2x
Riff 9-1x
Riff 10-2x
Riff 11-1x w/1st ending
Riff 12-1x w/ Riff 13-6x
Riff 14-1x
Riff 15-2x
Riff 16-2x
Riff 3 w/ Riff 4-1x
Riff 5-2x
Riff 6-2x
Riff 5-2x
Riff 7-2x
Riff 8-2x
Riff 7-2x
Riff 8-2x
Riff 7-2x
Riff 9-1x
Riff 10-2x
Riff 11-w/2nd ending
Riff 17-4x   

    -Enjoy!
        de profundis
            
Submit corrections

comments powered by Disqus
↑ Back to top | Incantation Tabs for Desecration. Lyrics for acoustic guitar and electric guitar. 1 Tablatures and chords are parodies/interpretations of the original songs. You may use it for private study, scholarship, research or language learning purposes only