» » »

Incantation, Anoint The Chosen Tabs (ver.1)

Artists:  A B C D E F G H I J K L M N O P Q R S T U V W X Y Z # 

Anoint The Chosen Tabs (ver.1)

Incantation Tabs
 Rating:
4/5 (4 votes)
Anoint The Chosen lessons Tabs too difficult? Try these video lessons and learn fast
1
                                           INCANTATION - ANOINT THE CHOSEN 
                         From the Album - THE INFERNAL STORM 
                            Copyright: NUCLEAR BLAST 2000 
                              Version 1.0 - MAR 14, 2002 


For Questions, Comments, Newest Version, or Corrections contact 


.  - palm mute           /  - slide up to 
\  - slide down to       ~  - vibrato 
h  - hammer on           b  - Bend 
p  - pull off            Suffixes for bend 
t  - tap                 f  - full bend    h - half bend 
ph - pinched harmonic    q  - quarter bend t - tap bend 
*  - see comment         ^  - Hold bend    r release bend 
x  - Stuccatto           ~  - vibrato bend 
,  - slight palm mute    () - ghost note, sustained note 
"  - tremolo note        <> - Trill 

TUNNING "C"F"A#"D#"G"C" 

Note: For Riff 1 the first 8 notes are 1's and the notes 
      toward the end of each measure are 10's and 11's. 

Riff 1 
|--------------------------------------------------------| 
|--------------------------------------------------------| 
|--------------------------------------------------------| 
|-----------------------99998888----99998888-------------| 
|-------------------------------8888--------999910101010-| 
|-1111111188887777777777---------------------------------| 

|--------------------------------------------------------| 
|--------------------------------------------------------| 
|--------------------------------------------------------| 
|-----------------------99998888----99998888999911111111-| 
|-------------------------------9999---------------------| 
|-1111111177776666666666---------------------------------| 

|--------------------------------------------------------| 
|--------------------------------------------------------| 
|--------------------------------------------------------| 
|-----------------------99998888----99998888-------------| 
|-------------------------------8888--------999910101010-| 
|-1111111188887777777777---------------------------------| 

|-----------------------------------------------------------------------------| 
|-----------------------------------------------------------------------------| 
|-----------------------------------------------------------------------------| 
|-----------------------99998888----9999888899991111111199991111111112121212--| 
|-------------------------------9999------------------------------------------| 
|-1111111166665555555555------------------------------------------------------| 

Riff 2-A 
|--------------------------------------------------| 
|--------------------------------------------------| 
|--------------------------------------------------| 
|--------------------------------------------------| 
|-----------------22222222----------------22--5555-| 
|-1111111155554444--------1111111155554444--44-----| 

Riff 2-B 
|--------------------------------------------------------------| 
|--------------------------------------------------------------| 
|--------------------------------------------------------------| 
|---------------------77777777--------------------77--10101010-| 
|-66666666101010109999--------66666666101010109999--99---------| 
|--------------------------------------------------------------| 

Riff 2-C 
|--------------------------------------------------| 
|--------------------------------------------------| 
|--------------------------------------------------| 
|-----------------44444444----------------44--7777-| 
|-3333333377776666--------3333333377776666--66-----| 
|--------------------------------------------------| 

Riff 3-A 
|----------------------------------------------------| 
|----------------------------------------------------| 
|----------------------------------------------------| 
|----------------------2-3-----------------------2-3-| 
|----------------------2-3-----------------------2-3-| 
|-22222222000000002222-0-1--22222222000000002222-0-1-| 
pm                     . .                       . . 

Riff 3-B 
|----------------------------------------------------| 
|----------------------------------------------------| 
|----------------------------------------------------| 
|----------------------2-3-----------------------2-3-| 
|-44444444222222224444-2-3--44444444222222224444-2-3-| 
|----------------------0-1-----------------------0-1-| 
pm                     . .                       . . 

Riff 4 
|-----------------------------|--------------------------------| 
|-----------------------------|--------------------------------| 
|-bq--bq----------------------|--bq--bq--10--12----------------| 
|-12^-10^-9--10--9/7----------|--12^-10^---------10p9----------| 
|--------------------10----7~-|-----------------------10----7~-| 
|-----------------------------|--------------------------------| 

|-----------------------------|--------------------------------| 
|-----------------------------|--------------------------------| 
|-bq--bq----------------------|--bq--bq--10--12----------------| 
|-12^-10^-9--10--9/7----------|--12^-10^---------10p9----------| 
|--------------------10----7~-|--------------------------------| 
|-----------------------------|--------------------------------| 

Riff 5-A 
|--------------------------|--------------------------| 
|--------------------------|--------------------------| 
|--------------------------|--------------------------| 
|--------------------------|--------------------------| 
|---------4-------5--------|---------4-------5--------| 
|-1---3-------3-------3----|-1---3-------3-------3----| 

Riff 5-B 
|--------------------------|--------------------------| 
|--------------------------|--------------------------| 
|--------------------------|--------------------------| 
|--------------------------|--------------------------| 
|---------4444----5555-----|---------4444----5555-----| 
|-11113333----3333----3333-|-11113333----3333----3333-| 

Fill 1 
|-----------------------------------------------------------| 
|-----------------------------------------------------------| 
|-----------------------------------------------------------| 
|--99999999111111111212121214141414151515151010101010101010-| 
|-----------------------------------------------------------| 
|-----------------------------------------------------------| 

Riff 6
|-------------------------|-------------------------------------| 
|-------------------------|-------------------------------------| 
|-------------------------|-------------------------------------| 
|-------------------------|-------------phph-------------phph---| 
|-4-0-6-0-4-0-2-0-4-0-2-0-|-0-4-0-6-0-0-4-6--0-4-0-6-0-0-4-6--0-| 
|-------------------------|-------------------------------------| 

Riff 7 (Play this riff as fast as you possibily can!) 
|-------------------------------------|------------------------------------| 
|-------------------------------------|------------------------------------| 
|-------------------------------------|------------------------------------| 
|--0077664400997766007766440066667777-|-0077664400997766007766440077779999-| 
|-------------------------------------|------------------------------------| 
|-------------------------------------|------------------------------------| 


Check out my other tabs by Incantation, Grave, Hypocrisy, Deicide,
Obituary, Catastrophic and Six Feet Under.
            
Submit corrections

comments powered by Disqus
↑ Back to top | Incantation Tabs for Anoint The Chosen. Lyrics for acoustic guitar and electric guitar. 1 Tablatures and chords are parodies/interpretations of the original songs. You may use it for private study, scholarship, research or language learning purposes only