» » »

Impossibles, So Much Tabs (ver.1)

Artists:  A B C D E F G H I J K L M N O P Q R S T U V W X Y Z # 

So Much Tabs (ver.1)

Impossibles Tabs
 Rating:
4/5 (4 votes)
So Much lessons Tabs too difficult? Try these video lessons and learn fast
1
                Kickass band and a kick ass song!
    E                            D# E                              D#
e|----------------|----------------|----------------|----------------|
B|--9---9---9---9-|--9---9---9---8/(9)9---9---9---9-|--9---9---9---8/|
G|--9---9---9---9-|--9---9---9---8/(9)9---9---9---9-|--9---9---9---8/|
D|--9---9---9---9-|--9---9---9---8/(9)9---9---9---9-|--9---9---9---8/|
A|--7---7---7---7-|--7---7---7---6/(7)7---7---7---7-|--7---7---7---6/|
E|----------------|----------------|----------------|----------------|

Verse-
  E                G#               A#               E
e|----------------|4-4---4---4---4-|5-5---5---5---5-|0-0---0---0---0-|
B|9-9---9---9---9-|4-4---4---4---4-|5-5---5---5---5-|0-0---0---0---0-|
G|9-9---9---9---9-|5-5---5---5---5-|6-6---6---6---6-|1-1---1---1---1-|
D|9-9---9---9---9-|6-6---6---6---6-|7-7---7---7---7-|2-2---2---2---2-|
A|7-7---7---7---7-|6-6---6---6---6-|7-7---7---7---7-|2-2---2---2---2-|
E|----------------|4-4---4---4---4-|5-5---5---5---5-|0-0---0---0---0-|

PreChorus-
  C#      G#       C#      D#       E       B        E       D#
e|----------------|----------------|----------------|----------------|
B|----------------|----------------|----------------|----------------|
G|6-6-6-6---------|6-6-6-6-8-8-8-8-|9-9-9-9---------|9-9-9-9-8-8-8-8-|
D|6-6-6-6-6-6-6-6-|6-6-6-6-8-8-8-8-|9-9-9-9-9-9-9-9-|9-9-9-9-8-8-8-8-|
A|4-4-4-4-6-6-6-6-|4-4-4-4-6-6-6-6-|7-7-7-7-9-9-9-9-|7-7-7-7-6-6-6-6-|
E|--------4-4-4-4-|----------------|--------7-7-7-7-|----------------|

last time
  C#      G#       C#      D#       A                B
e|----------------|----------------|----------------|----------------|
B|----------------|----------------|----------------|----------------|
G|6-6-6-6---------|6-6-6-6-8-8-8-8-|----------------|----------------|
D|6-6-6-6-6-6-6-6-|6-6-6-6-8-8-8-8-|7-7-7-7-7-7-7-7-|9-9-9-9-9-9-9-9-|
A|4-4-4-4-6-6-6-6-|4-4-4-4-6-6-6-6-|7-7-7-7-7-7-7-7-|9-9-9-9-9-9-9-9-|
E|--------4-4-4-4-|----------------|5-5-5-5-5-5-5-5-|7-7-7-7-7-7-7-7-|

Chrous-
  E       C#       G#            A  E       C#       G#            A
e|----------------|----------------|----------------|----------------|
B|----------------|----------------|----------------|----------------|
G|--------6-6-6-6-|----------------|--------6-6-6-6-|----------------|
D|2-2-2-2-6-6-6-6-|6-6-6-6---6---7-|2-2-2-2-6-6-6-6-|6-6-6-6---6---7-|
A|2-2-2-2-4-4-4-4-|6-6-6-6---6---7-|2-2-2-2-4-4-4-4-|6-6-6-6---6---7-|
E|0-0-0-0---------|4-4-4-4-X-4-X-5-|0-0-0-0---------|4-4-4-4-X-4-X-5-|

Since she left me.
e|----------------|----------------|----------------|----------------|
B|----------------|----------------|----------------|----------------|
G|9-9-9-9-9-9-9-9-|----------------|----------------|----------------|
D|9-9-9-9-9-9-9-9-|7-7-7-7---7---9-|2---------------|----------------|
A|7-7-7-7-6-6-6-6-|7-7-7-7---7---9-|2---------------|----------------|
E|----------------|5-5-5-5-X-5-X-7-|0---------------|----------------|

========================================================================
            
Submit corrections

comments powered by Disqus
↑ Back to top | Impossibles Tabs for So Much. Lyrics for acoustic guitar and electric guitar. 1 Tablatures and chords are parodies/interpretations of the original songs. You may use it for private study, scholarship, research or language learning purposes only