>
 >
Simon

Simon Guitar Tabs

Impossibles - Simon chords, tabs, tablatures, lyrics

Guitar lessons | Add/correct | Request | Top 50 tabs Artists:  A B C D E F G H I J K L M N O P Q R S T U V W X Y Z 0-9

Simon Guitar Tabs – Impossibles

CD, Sheet music, Poster

Do you like Simon? Share with your friends now
Tabs
-------------------------------------------------------------------------------
-------------------------------------------------------------------------------
  I have tabbed this to the best of my ability, I'm not sure some parts but it should be close enough.
Tuning: EADGBe

  INTRO
e|---------------------------------------------------------------------------|
B|---------------------------------------------------------------------------|
G|---------------------------------------------------------------------------|
D|---------------------------------------------------------------------------|
A|--4-----------------3-----------------1-----------------0------------------|
E|---------------------------------------------------------------------------|
     He wakes himself up with a monkey  wrench,           straightens out his
    spine,            does it all the   time,             every time.

  VERSE 1  (repeat x2)
e|-------------------------------------------------|
B|-------------------------------------------------|
G|-----------------------------5-----5-----5-----5-|
D|-----6-----6-----6-----6--3-----3-----3-----3----|
A|--4-----4-----4-----4----------------------------|
E|-------------------------------------------------|
(palm mute)
e|-------------------------------------------------|
B|-------------------------------------------------|
G|-------------------------------------------------|
D|-----3-----3-----3-----3-----2-----2-----2-----2-|
A|--1-----1-----1-----1-----0-----0-----0-----0----|
E|-------------------------------------------------|
(palm mute)
    No matter               how hard he may
    scrub, He's just        rubbing it 
    
    in. He                  washes his hair with a
    bar of soap,            he doesn't get it.
           
  BRIDGE 1  (repeat x2)
e|----------------------------------------------------|
B|----------------------------------------------------|
G|--6--6-6-6-6---5--5-5-5-5---3--3-3-3-3---2--2-2-2-2-|
D|--6--6-6-6-6---5--5-5-5-5---3--3-3-3-3---2--2-2-2-2-|
A|--4--4-4-4-4---3--3-3-3-3---1--1-1-1-1---0--0-0-0-0-|
E|----------------------------------------------------|

  VERSE 2  (repeat x4)
e|--------------------------------------------------------------------|
B|--------------------------------------------------------------------|
G|--10-10---10--10-x---10-10---10--10-x---7-7---7--7-x---6-6---6--6-x-|
D|--11-11---11--11-x---11-11---11--11-x---8-8---8--8-x---7-7---7--7-x-|
A|--11-11---11--11-x---11-11---11--11-x---8-8---8--8-x---7-7---7--7-x-|
E|--9--9----9---9--x---9--9----9---9--x---6-6---6--6-x---5-5---5--5-x-|
    It's like a        smack in the       face,         or a shot in the
    arm; He            doesn't appear to  help,         but he doesn't do any
    harm. He'd         rather just        sustain       in his comfotable rou                
    -tine.             His comfortable    routine,      and a mad magazine.

  CHORUS  (repeat x4)
e|----------------------------------------------------------------------|
B|----------------------------------------------------------------------|
G|--6--6--6-6-6-6-/-10--10--10-10-10-10-\-3--3--3-3-3-3---2--2--2-2-2-2-|
D|--6--6--6-6-6-6-/-10--10--10-10-10-10-\-3--3--3-3-3-3---2--2--2-2-2-2-|
A|--4--4--4-4-4-4-/-8---8---8--8--8--8--\-1--1--1-1-1-1---0--0--0-0-0-0-|
E|----------------------------------------------------------------------|
    He's got a      ballpoint pen tatoo   on the skin    stretched across his
bones.Theres nothin worse than being in a crowded room   feelin all alone.
    He's got a      ballpoint pen tatoo   on the skin    stretched across his
bones.Theres nothin worse than being in a crowded room   feelin all alone.

  PRE-SOLO (repeat x4)
e|----------------------------------------|
B|----------------------------------------|
G|--6-6-6-6---5-5-5-5---3-3-3-3---2-2-2-2-|
D|--6-6-6-6---5-5-5-5---3-3-3-3---2-2-2-2-|
A|--4-4-4-4---3-3-3-3---1-1-1-1---0-0-0-0-|
E|----------------------------------------|

  SOLO (repeat x2)
e|--------------------------------------------|
B|--------------------------------------------|
G|--------------------------------------------|
D|----3-4/6----4-4/6-4----3-3/5-3\2---2-2/4-2-|
A|--4--------3----------1-----------0---------|
E|--------------------------------------------|

  VERSE 3
e|---------------------------------------------------------------------|
B|---------------------------------------------------------------------|
G|--6-6-6-6-6-6-6-6--5-5-5-5-5-5-5-5--3-3-3-3-3-3-3-3--2-2-2-2-2-2-2-2-|
D|--6-6-6-6-6-6-6-6--5-5-5-5-5-5-5-5--3-3-3-3-3-3-3-3--2-2-2-2-2-2-2-2-|
A|--4-4-4-4-4-4-4-4--3-3-3-3-3-3-3-3--1-1-1-1-1-1-1-1--0-0-0-0-0-0-0-0-|
E|---------------------------------------------------------------------|
  He sit's on       the curb from dusk til dawn,       he's peeling off his 
  core,            ripped up and    torn.
  It's better liv  -ing through     chemistry,         it's an escape it's a             
  vulnerability                                   and then the twilight comes

*add e|------------| before the second chorus.
     B|------------|
     G|-6----------|
     D|-6-let ring-|
     A|-4----------|
     E|------------|

BRIDGE 2 (repeat x4)
e|----------------------------|
B|----------------------------|
G|--3-3-2--2--5---3-3-2--2--6-|
D|--3-3-2--2--5---3-3-2--2--6-|
A|--1-1-0--0--3---1-1-0--0--4-|
E|----------------------------|
(palm mute)

*add e|-------------| between the syllables in the last alone.
     B|-------------|
     G|-6---x--x--6-|
     D|-6---x--x--6-|
     A|-4---x--x--4-|
     E|-------------|

INTRO 
VERSE 1
BRIDGE 1
VERSE 2
CHORUS
PRESOLO
SOLO
VERSE 3
CHORUS
PRESOLO
BRIDGE 2
CHORUS

| /  slide up
| \  slide down
| h  hammer-on
| p  pull-off
| ~  vibrato
| +  harmonic
| x  Mute note===============================================================================





Comments


Popular Impossibles tabs & chords
Eightball Bass Tabs
(Never) Say Goodbye Tabs
(Never) Say Goodbye 1 Tabs
4gn 4ever Tabs
Always Have, Always Will Tabs
Connecticut Intro Tabs
Face-First! Tabs
Gone 4 Good Tabs
Gone 4 Good 1 Tabs
Hey, You Kids! Tabs


Song lyrics



↑ Back to top | Tablatures and chords are parodies/interpretations of the original songs. You may use it for private study, scholarship, research or language learning purposes only
© 2014 AZChords.com Contact us | Privacy policy | DMCA | Add/correct tabs | Request tabs | Top 50 tabs