>
 >
Priorities Intact

Priorities Intact Guitar Tabs

Impossibles - Priorities Intact chords, tabs, tablatures, lyrics

Guitar lessons | Add/correct | Request | Top 50 tabs Artists:  A B C D E F G H I J K L M N O P Q R S T U V W X Y Z 0-9

Priorities Intact Guitar Tabs – Impossibles

CD, Sheet music, Poster

Do you like Priorities Intact? Share with your friends now
Tabs
-------------------------------------------------------------------------------
			     Priorities intact - The Impossibles
-------------------------------------------------------------------------------
This is my very first song i have submited i believe it is nearly 100% correct
there may be a few bumps so to speak though but pretty much good tab

Tuning: Standerd tuning

Intro+ Verse
e|---------------------------------------------------------------------------------|
B|---------------------------------------------------------------------------------|
G|---------------------------------------------------------------------------------|
D|----9-6-------6-7-6----9-6-------7-6-4----9-6-------6-7-6----11---11---11--9--7--|
A|--7-----7p6/4--------7-----7p6\4--------7-----7p6\4--------9----9----9-----------|
E|---------------------------------------------------------------------------------|
  
Verse 1: Here I sit my lifes a model kit, but i burned the instructions adn the pieces
	 Dont fit, I eat spageteos turn on the stereo and keep in mind my best case 
	 Senario

Verse 2: And it just clicks the things that make me tick, get thrown against the wall
	 And i keep what sticks, i wish with all my might that i had a cause to fight
	 But i can't argue with myself tonight 


Chorse
e|-----------------------------------------------------------------------|
B|-----------------------------------------------------------------------|
G|-----------------------------------------------------------------------|
D|--7-x-6-x-2-2-2-2--7-6-------------------------------------------------|
A|--7-x-6-x-2-2-2-2--7-6-------------------------------------------------|
E|--5-x-4-x-0-0-0-0--5-4-------------------------------------------------|

	Oh I'm with out a serious doubt
	Oh i'm with in my contradictions
	Oh i'm with out a serious doubt

Before second Verse
e|-----------------------------------------------------------------------|
B|-----------------------------------------------------------------------|
G|-----------------------------------------------------------------------|
D|----9-7-6---7-6-4---9-7-6---7-6-4---9-7-6---7-6-4----11---11---11-9-7--|
A|--7-------4-------7-------4-------7-------4--------9----9----9---------|
E|-----------------------------------------------------------------------|


Bridge
e|-------------------------------------------------------------------|
B|-------------------------------------------------------------------|
G|--6-6-6-6--2-2-2-2-------------------------------------------------|
D|--6-6-6-6--2-2-2-2--2-2-2-2-2-2-2-2--------------------------------|
A|--4-4-4-4--0-0-0-0--2-2-2-2-2-2-2-2--------------------------------|
E|--------------------0-0-0-0-0-0-0-0--------------------------------|

	I Can't complain much less than gained strive for progression
	My futile needs are all i feed gives me indegestion

Solo - Listen for stum patern - first part is guitar #1 second is guitar #2
                 **             Play twice                **
e|-------------|----------------------------------------------------|
B|-------------|----------------------------------------------------|
G|-------------|--9-9-9-9-9--8-8-8-8-8--6-6-6-6-6--5-5-5-5-5--------|
D|--2-2-2-2-2--|--9-9-9-9-9--8-8-8-8-8--6-6-6-6-6--5-5-5-5-5--------|
A|--2-2-2-2-2--|--7-7-7-7-7--6-6-6-6-6--4-4-4-4-4--3-3-3-3-3--------|
E|--0-0-0-0-0--|----------------------------------------------------|
                 **              Palm Mute                **

e|------------------------------------------------------------------|
B|------------------------------------------------------------------|
G|-9-9-9-9-9--8-8-8-8-8--13-13-13-13-13--9-9-9-9-9--16-16-16-16-16--|
D|-9-9-9-9-9--8-8-8-8-8--13-13-13-13-13--9-9-9-9-9--16-16-16-16-16--|
A|-7-7-7-7-7--6-6-6-6-6--11-11-11-11-11--7-7-7-7-7--14-14-14-14-14--|
E|------------------------------------------------------------------|

e|------------------------------------------------------------------|
B|------------------------------------------------------------------|
G|-8-8-8-8-8--6-6-6-6-6--5-5-5-5-5----------------------------------|
D|-8-8-8-8-8--6-6-6-6-6--5-5-5-5-5----------------------------------|
A|-6-6-6-6-6--4-4-4-4-4--3-3-3-3-3----------------------------------|
E|------------------------------------------------------------------|




| /  slide up
| \  slide down
| h  hammer-on
| p  pull-off
| ~  vibrato
| +  harmonic
| x  Mute note
===============================================================================





Comments


Popular Impossibles tabs & chords
Always Have, Always Will Bass Tabs
Always Have, Always Will 1 Bass Tabs
Eightball Bass Tabs
Eightball 1 Bass Tabs
Always Have, Always Will Tabs
Connecticut Intro Tabs
Enter/Return Tabs
Gone 4 Good Tabs
Hey, You Kids! Tabs
So Much Tabs


Song lyrics



↑ Back to top | Tablatures and chords are parodies/interpretations of the original songs. You may use it for private study, scholarship, research or language learning purposes only
© 2014 AZChords.com Contact us | Privacy policy | DMCA | Add/correct tabs | Request tabs | Top 50 tabs