» » »

Impossibles, (Never) Say Goodbye Tabs (ver.1)

Artists:  A B C D E F G H I J K L M N O P Q R S T U V W X Y Z # 

(Never) Say Goodbye Tabs (ver.1)

Impossibles Tabs
Rating:
0/5 (0 votes)
(Never) Say Goodbye lessons Tabs too difficult? Try these video lessons and learn fast
                

tune 1/2 step down

* = muted
pm = palm muted
b= 1/2 step bend
r= release bend

Intro

Eb--------------------------------------------------------------------|
Bb--------------------------------------------------------------------|
Gb-------------4-4-6-6---------4-4---------------444-666---------444--|
Db-2-2-6-6-7-7-4-4-6-6-6-6-7-7-4-4---222-666-777-444-666-666-777-444--|
Ab-2-2-6-6-7-7-2-2-4-4-6-6-7-7-2-2---222-666-777-222-444-666-777-222--|
Eb-0-0-4-4-5-5---------4-4-5-5-------000-444-555---------444-555------|


Verse

Eb------------------------------------|
Bb------------------------------------|
Gb---------------5-4--------------5-4-|
Db-2-(hold)--6-7-5-4-2-(hold)-6-7-5-4-|
Ab-2---------6-7-3-2-2--------6-7-3-2-|
Eb-0---------4-5-----0--------4-5-----|

chorus (rhythm not indicated)

Eb------------------------------|
Bb------------------------------|
Gb---4-6-----8-9-8-6--------5-4-|
Db-2-4-6-4-6-8-9-8-6----6-7-5-4-|
Ab-2-2-4-4-6-6-7-6-4----6-7-3-2-|
Eb-0-----2-4------------4-5-----|

Bridge

Eb-------------------------------|
Bb-------------------------------|
Gb-6---------------6-------------|
Db-6-6-7-6-2-7-6-2-6-6-7-6-2-7-6-|
Ab-4-6-7-6-2-7-6-2-4-6-7-6-2-7-6-|
Eb---4-5-4-0-5-4-0---4-5-4-0-5-4-|

SOLO (rhythm guitar plays bridge)

Eb---------------------------4p0-5p0-7-5-4h5p4h5---12p0-11p0-9p0-|
Bb--9-----9-----9---------0--------------------------------------|
Gb--11(b)-11(b)-11(r)-9-8----------------------------------------|
Db---------------------------------------------------------------|
Ab---------------------------------------------------------------|
Eb---------------------------------------------------------------|

11p0-7p0-9p0-5p0-7p0-4p0-5p0-7p0-9p0-7p0-9-|
-------------------------------------------|
-------------------------------------------|
-------------------------------------------|
-------------------------------------------|
-------------------------------------------|

SOLO cont. (rhythm guitar plays chorus)

Eb--------------------------------------------------------------|
Bb--16---17--19(b)-19(b)(r)-17-16-14-let ring or play-----------|
Bb---------------------------------------------------------5-4--|
Db-----------------------------------------------------6-7-5-4--|
Ab-----------------------------------------------------6-7-3-2--|
Eb-----------------------------------------------------4-5------|

outro

Eb-----------------------------------------------------|
Bb-----------------------------------------------------|
Gb---4-6-----8-9-8-6--------5-4-4----------------------|
Db-2-4-6-4-6-8-9-8-6----6-7-5-4-4-slide down and mute--|
Ab-2-2-4-4-6-6-7-6-4----6-7-3-2-2----------------------|
Eb-0-----2-4------------4-5----------------------------|

SONG ORDER....
Intro
verse
chorus x 2
verse
chorus x 2
bridge
solo
outro
            
Submit corrections

comments powered by Disqus
↑ Back to top | Impossibles Tabs for (Never) Say Goodbye. Lyrics for acoustic guitar and electric guitar. Tablatures and chords are parodies/interpretations of the original songs. You may use it for private study, scholarship, research or language learning purposes only