>
 >
Frances

Frances Guitar Tabs

Impossibles - Frances chords, tabs, tablatures, lyrics

Guitar lessons | Add/correct | Request | Top 50 tabs Artists:  A B C D E F G H I J K L M N O P Q R S T U V W X Y Z 0-9

Frances Guitar Tabs – Impossibles

CD, Sheet music, Poster

Do you like Frances? Share with your friends now
Tabs
  This tab is pretty acurate-but atleast there is a full version out now


  Intro X1
e|-0---|
B|-1---|
G|-0---|
D|-2---|
A|-3---|
E|-----|
     I bought him at thrift town for 65 cents

e|-3---|
B|-0---|
G|-0---|
D|-0---|
A|-2---|
E|-3---|
     If i had a kingdom he would be my prince

e|-5---|
B|-5---|
G|-5---|
D|-7---|
A|-7---|
E|-5---|
     His cuteness is too much for my tolerance

e|-1---|
B|-1---|
G|-2---|
D|-3---|
A|-3---|
E|-1---|
     Frances i love you

  

  Verse X8
e|--------------------------------------------------|
B|--------------------------------------------------|
G|---5>>-------------5--5>>---------------5---------|
D|---5>>-------------5--5>>---------------5-5-------|
A|---3>>-------------3--3>>---------------3-5-------|
E|------------------------------------------3-------|

  

  Chorus X3
e|--------------------------------------------|
B|--------------------------------------------|
G|----------------------------5>--2>----------|
D|-6>-----------5>------------5>--2>----------|
A|-6>-----------5>------------3>--0>----------|
E|-4>-----------3>----------------------------|



  After chorus X1 (oh francis i love you)  
e|------------------------|
B|------------------------|
G|------------5>----------|
D|-6>-5>------5>----------|
A|-6>-5>------3>----------|
E|-4>-3>------------------|
  


  Pre-solo X1
e|-----------------------------------------------|
B|-----------------------------------------------|
G|-5>----2>----------------------------------5>--|
D|-5>----2>----3>----6>----3>----6>----5>----5>--|
A|-3>----0>----3>----6>----3>----6>----5>----3>--|
E|-------------1>----4>----1>----4>----3>--------|



  Solo
e|-----------------------------------------------------------------------------|
B|-----------------------------------------------------------------------------|
G|-----------------------------------------------------------------------------|
D|--2-3-5-3-2---------------------------------3------6~-----3-----6~-5-5-5-5---|
A|3---------------2-3-5-3-2-----7p57p57p5---3-----46------3-----46---5-5-5-5---|
E|--------------3-------------5-----------1-----46------1-----46-----3-3-3-3---|
                                              ^ ^   ^^^^    ^ ^   ^^^^



e|-------------------------------------------------|
B|-------------------------------------------------|
G|-5~----------------------------------------------|
D|-5~----------------------------------------------|
A|-3~----------------------------------------------|
E|-------------------------------------------------|
   yeah me and frances got a special kind of love,
   
e|--------------------------------------------|
B|--------------------------------------------|
G|--------------------------------------------|
D|-5~-----------------------------------------|
A|-5~-----------------------------------------|
E|-3~-----------------------------------------|
   it fits just right, it feels like a glove,
  
e|-------------------------------------------|
B|-------------------------------------------|
G|--2~---------------------------------------|
D|--2~---------------------------------------|
A|--0~---------------------------------------|
E|-------------------------------------------|
  I hope when I die that I see him up above,

e|-----------------------------------------|
B|-----------------------------------------|
G|-----------------------------------------|
D|-3>>-------------------------------------|
A|-3>>-------------------------------------|
E|-1>>-------------------------------------|
   frances you're the one I'm dreaming of.


  Verse


  Chorus


  After-chorus


  Solo #2 X2
e|----8-------10---8---12----8--8h10p8--------8-------10---8---15-13-12-11h12p11
B|8-------8-------------------------------8-------8-----------------------------
G|------------------------------------------------------------------------------
D|------------------------------------------------------------------------------
A|------------------------------------------------------------------------------
E|------------------------------------------------------------------------------

e|--------8-------10---8---12----8--8h10p8-------------------------|
B|----8-------8----------------------------------------------------|
G|-----------------------------------------------------------------|
D|--------------------------------------------6-666666-5-555555----|
A|-----------------------------------------------------------------|
E|--------------------------------------------4-444444-3-333333----|


  Outro X1
e|-0---|
B|-1---|
G|-0---|
D|-2---|
A|-3---|
E|-----|
     so now the time came for me and frances to part...

e|-3---|
B|-0---|
G|-0---|
D|-0---|
A|-2---|
E|-3---|
     come on frances, you knew it would be like this from the very start

e|-5---|
B|-5---|
G|-5---|
D|-7---|
A|-7---|
E|-5---|
     I just can't bear to give you my heart.

e|-1---|
B|-1---|
G|-2---|
D|-3---|
A|-3---|
E|-1---|
     Frances I miss you





Comments


Popular Impossibles tabs & chords
Always Have, Always Will 1 Bass Tabs
Eightball 1 Bass Tabs
(Never) Say Goodbye 1 Tabs
Always Have, Always Will Tabs
Eightball Tabs
Gone 4 Good Tabs
Gone 4 Good 1 Tabs
Hey, You Kids! Tabs
Priorities Intact Tabs
Simon Tabs


Song lyrics



↑ Back to top | Tablatures and chords are parodies/interpretations of the original songs. You may use it for private study, scholarship, research or language learning purposes only
© 2014 AZChords.com Contact us | Privacy policy | DMCA | Add/correct tabs | Request tabs | Top 50 tabs