>
 >
Face-First!

Face-First! Guitar Tabs

Impossibles - Face-First! chords, tabs, tablatures, lyrics

Guitar lessons | Add/correct | Request | Top 50 tabs Artists:  A B C D E F G H I J K L M N O P Q R S T U V W X Y Z 0-9

Face-First! Guitar Tabs – Impossibles

CD, Sheet music, Poster

Do you like Face-First!? Share with your friends now
Tabs
Face-First! by The Impossibles

Verse:
e------------------------------------|
B------------------------------------|
G-9-9-9-9-----------6-6-6-6----------|
D-9-9-9-9--6-6-6-6--6-6-6-6--7-7-7-7-|
A-7-7-7-7--6-6-6-6--4-4-4-4--7-7-7-7-|
E----------4-4-4-4-----------5-5-5-5-|
      x x      x x      x x      x x

Chorus:
e------------------------------------------------------------------|
B------------------------------------------------------------------|
G-9-9-9-9-9-------------9-9-9-9-9------------------9---9---9---9---|
D-9-9-9-9-9--9-9-9-9-9--9-9-9-9-9--10--10--10--10--9---9---9---9---|
A-7-7-7-7-7--9-9-9-9-9--7-7-7-7-7--10--10--10--10--7---7---7---7---|
E------------7-7-7-7-7-------------8---8---8---8-------------------|
                                   ^Distortion here.
e------------------------------------------------|
B------------------------------------------------|
G-----------------9---9---9---9------------------|
D-9---9---9---9---9---9---9---9---8---8---8---8--|
A-9---9---9---9---7---7---7---7---8---8---8---8--|
E-7---7---7---7-------------------6---6---6---6--|

Solo:
e---------------4-5-4---4---------------------------------------------|
B---------5-4---------7---7-5-5-4-5-4---4-----------------------------|
G---4-6-4-----6-----------------------6---4-4-6-4---4-------4-6-4-----|
D-6-----------------------------------------------7---7-6-6---------4-|
A-----------------------------------------------------------------7---|
E---------------------------------------------------------------------|

e-----------------------------------------------------------|
B-------------------------------------------------------4-5-|
G---------------------------------------------------4-6-----|
D-6-6-6-7-6-4-6---4-6---4-6---4-6-7-6-7-6-7-6-4-6-7---------|
A---------------7-----7-------------------------------------|
E---------------------------7-------------------------------|

Verse
Chorus
Verse
Chorus
Solo
Chorus

That's about it. There's a little rhythm change in the second verse, but it's nothing
too difficult to figure out.





Comments


Popular Impossibles tabs & chords
Always Have, Always Will Bass Tabs
Always Have, Always Will 1 Bass Tabs
Eightball Bass Tabs
Eightball 1 Bass Tabs
(Never) Say Goodbye 1 Tabs
4gn 4ever Tabs
Eightball Tabs
Enter/Return Tabs
Gone 4 Good Tabs
Simon Tabs


Song lyrics



↑ Back to top | Tablatures and chords are parodies/interpretations of the original songs. You may use it for private study, scholarship, research or language learning purposes only
© 2014 AZChords.com Contact us | Privacy policy | DMCA | Add/correct tabs | Request tabs | Top 50 tabs