» » »

Impossibles, Enter/Return Tabs (ver.1)

Artists:  A B C D E F G H I J K L M N O P Q R S T U V W X Y Z # 

Enter/Return Tabs (ver.1)

Impossibles Tabs
 Rating:
4/5 (4 votes)
Enter/Return lessons Tabs too difficult? Try these video lessons and learn fast
                
Band: The Impossibles

Drop D tuning

* = muted
pm = palm muted

Intro after synth and modem noise stuff

This makes sense if you listen to the track...

E:----------|------------------------------|
B:----------|------------------------------|
G:---------.|------------------------------|
D:--4h5h7--.|-0-0-------------------4h5h7--|
A:--4h5h7---|-0-0--99-77-55---------4h5h7--|
D:--4h5h7---|-0-0------------99-77--4h5h7--|

Verse

E:------------------------------------------------------------------|
B:------------------------------------------------------------------|
G:------------------------------------------------------------------|
D:-0-0--0-00--0-0-0-4h5h7--0-0--0-00--0-0-0-4h5h7-8-***-8p7-***-7p--|
A:-0-0--0-00--0-0-0-4h5h7--0-0--0-00--0-0-0-4h5h7-8-***-8p7-***-7p--|
D:-0-0--0-00--0-0-0-4h5h7--0-0--0-00--0-0-0-4h5h7-8-***-8p7-***-7p--|
        pm.........             pm........

Pre Chorus (rhythm not indicated)

E:--------|
B:--------|
G:-----5--|
D:--2--5--|
A:--2--3--|
D:--2-----|

Chorus

E:-----------------------------------------------------------------------|
B:-----------------------------------------------------------------------|
G:-------------------4-44-444-444-444------------------------------------|
D:--0-00-000-000-000-4-44-444-444-444-5-55-555-555-555-8-***-8p7-***-7p--|
A:--0-00-000-000-000-2-22-222-222-222-5-55-555-555-555-8-***-8p7-***-7p--|
D:--0-00-000-000-000------------------5-55-555-555-555-8-***-8p7-***-7p--|

End of Chorus 2nd time through

E:-----------------------------|
B:-----------------------------|
G:-----------------------------|
D:--7--0-0-\-------------------|
A:--7--0-0-->-mute right away--|
D:--7--0-0-/-------------------|

Song Order

Intro x 4
Verse
Intro
Verse
Intro
Pre Chorus
Intro
Verse
Intro
verse
Intro
Pre Chorus
Chorus x 2
Intro x 8

End on D like so...

E:-------------------------|
B:-------------------------|
G:-------------------------|
D:--0-0-\------------------|
A:--0-0-->mute right away--|
D:--0-0-/------------------|
            
Submit corrections

comments powered by Disqus
↑ Back to top | Impossibles Tabs for Enter/Return. Lyrics for acoustic guitar and electric guitar. Tablatures and chords are parodies/interpretations of the original songs. You may use it for private study, scholarship, research or language learning purposes only