» » »

Impossibles, Connecticut Tabs (ver.1)

Artists:  A B C D E F G H I J K L M N O P Q R S T U V W X Y Z # 

Connecticut Tabs (ver.1)

Impossibles Tabs
Rating:
0/5 (0 votes)
Connecticut lessons Tabs too difficult? Try these video lessons and learn fast
                (Intro)

  Intro 2x (palm mute it you dummies.)
e|---------------------------------------------------------------------------|
B|---------------------------------------------------------------------------|
G|---------------------------------------------------------------------------|
D|---------------------------------------------------------------------------|
A|-----------7--7--7---------------------------------------------------------|
E|--3--3--3-----------7--7--8--8--8--8--0--0--0--2--2------------------------|

  A:4x	
e|---------------------------------------------------------------------------|
B|---------------------------------------------------------------------------|
G|-----------9--9--9---------------------------------------------------------|
D|--5--5--5--9--9--9--9--9--10-10-10--2--2--2--4--4--------------------------|
A|--5--5--5--7--7--7--9--9--10-10-10--2--2--2--4--4--------------------------|
E|--3--3--3-----------7--7--8--8--8---0--0--0--2--2--------------------------|

  B:4x
e|---------------------------------------------------------------------------|
B|---------------------------------------------------------------------------|
G|--------------5--5--5---------------------5--5--5--8--8--8--8--------------|
D|-5--5--5------5--5--5-------2--2--2-------5--5--5--8--8--8--8--------------|
A|-5--5--5------3--3--3-------2--2--2-------3--3--3--6--6--6--6--------------|
E|-3--3--3--------------------0--0--0----------------------------------------|
  
  C:2 1/2 x     				     Then...
e|------------------------------------------|--------------------------------|
B|------------------------------------------|--------------------------------|
G|-5--5--5--5--5--5--5----------------------|--------------------------------|
D|-5--5--5--5--5--5--5--5--5--5--5--5--5--5-|--5--3--2--2--2--2--2--2--2-----|
A|-3--3--3--3--3--3--3--5--5--5--5--5--5--5-|--5--3--2--2--2--2--2--2--2-----|
E|----------------------3--3--3--3--3--3--3-|--3--1--0--0--0--0--0--0--0-----|
	
  A again
  C again
	
  2x jerky 2x strumming
e|---------------------------------------------------------------------------|
B|---------------------------------------------------------------------------|
G|-------------------------------------3--3--3--3----------------------------|
D|-5--5--5--5--3--3--3--3--2--2--2--2--3--3--3--3----------------------------|
A|-5--5--5--5--3--3--3--3--2--2--2--2--1--1--1--1----------------------------|
E|-3--3--3--3--1--1--1--1--0--0--0--0----------------------------------------|

 A again
e|---------------------------------------------------------------------------|
B|---------------------------------------------------------------------------|
G|---------------------------------------------------------------------------|
D|---------------------------------------------------------------------------|
A|---------------------------------------------------------------------------|
E|---------------------------------------------------------------------------|

==============================================================================
            
Submit corrections

comments powered by Disqus
↑ Back to top | Impossibles Tabs for Connecticut. Lyrics for acoustic guitar and electric guitar. Tablatures and chords are parodies/interpretations of the original songs. You may use it for private study, scholarship, research or language learning purposes only