» » »

Impossibles, 4gn 4ever Tabs (ver.1)

Artists:  A B C D E F G H I J K L M N O P Q R S T U V W X Y Z # 

4gn 4ever Tabs (ver.1)

Impossibles Tabs
 Rating:
4/5 (4 votes)
4gn 4ever lessons Tabs too difficult? Try these video lessons and learn fast
                
Band: The Impossibles

Drop D tuning

* = muted
pm = palm muted

Intro
E:--------------------------------------|
B:--------------------------------------|
G:--------------------------------------|
D:------4-----4-----4-----4-----4--0-0--|
A:----5-----5-----5-----5-----5----0-0--|
D:--0-----0-----0-----0-----0------0-0--|
                                   pm.

Verse (rhythm not indicated)
E:-----------------------------|----------------------------------------|------------|
B:-----------------------------|----------------------------------------|------------|
G:--11--9--7--11---9--7---4--3-|--11--9--7--11---9--7--11--9--7---4--3--|--11--9--7--|
D:-----------------------------|----------------------------------------|------------|
A:---9--7--5---9---7--5---2--1-|---9--7--5---9---7--5---9--7--5---2--1--|---9--7--5--|
D:-----------------------------|----------------------------------------|------------|

Chorus
E:---------------------------------------------------------|
B:---------------------------------------------------------|
G:--------------------------7777--9999--11-11-11-11--6666--|
D:--5--5-*-*-*--5--5-*-*-*---------------------------------|
A:--5--5-*-*-*--5--5-*-*-*--5555--7777---9--9--9--9--4444--|
D:--5--5-*-*-*--5--5-*-*-*---------------------------------|

End of Chorus
E:------------------------------------|
B:------------------------------------|
G:------------------------------------|
D:--5-*-*-5-*-*-5-*-*-5-7-8-----------|
A:--5-*-*-5-*-*-5-*-*-5-7-8-let ring--|
D:--5-*-*-5-*-*-5-*-*-5-7-8-----------|

Outro (rhythm not indicated)
E:--------------------------|
B:--------------------------|
G:-----7-----7-----7--------|
D:--0--7--0--7--0--7--8--7--|
A:--0--5--0--5--0--5--8--7--|
D:--0-----0-----0-----8--7--|


Song Order

Intro x 4
Verse
Chorus x 3
End of Chorus
Intro x 4
Verse
Chorus x 3
End of Chorus
Outro x 4
End of Chorus
Intro x 4

End with Natural Harmonic on 7th fret across all strings
            
Submit corrections

comments powered by Disqus
↑ Back to top | Impossibles Tabs for 4gn 4ever. Lyrics for acoustic guitar and electric guitar. Tablatures and chords are parodies/interpretations of the original songs. You may use it for private study, scholarship, research or language learning purposes only