» » »

I Hennes Sovrum Tabs (ver.1)

Artists:  A B C D E F G H I J K L M N O P Q R S T U V W X Y Z # 

I Hennes Sovrum Tabs (ver.1)

Imperiet
Rating:
0/5 (0 votes)

Hard to play? Try these video lessons and learn fast.
                I hennes sovrum


Intro/Mellanspel:
e:-2h3p2---------2----|
b:-------5-3---3---3--|
g:-----------2--------|
d:--------------------|
a:--------------------|
E:--------------------|

Vers:
               D                   D        G      A      D      A      D
e-2h3p2---------2-----2h3p2---------2-------3------0------2------0------2----|
b-------5-3---3---3---------5-3---3---3----3-3----2-2----3-3----2-2----3-3---|
g-----------2-------------------2---------0---0--2---2--2---2--2---2--2---2--|
d----------------------------------------------------------------------------|
a----------------------------------------------------------------------------|
E----------------------------------------------------------------------------|

Mellanspel 2:
e-----2---------2--------2---------2--------2----|
b---3---3-----3---3-----3--3-----3---3-----3--3--|
g-2---------2---------2--------2---------2-------|
d------------------------------------------------|
a------------------------------------------------|
E------------------------------------------------|

Refräng 1:
    D     A     G     D
e---2-----0-----3-----2---|
b--3-3---2-2---3-3---3-3--|
g-2-----2-----0-----2-----|
d-------------------------|
a-------------------------|
E-------------------------|   x 2  Sen:

    D     A     G     Em    A     A       A         D
e---2-----0-----3-----0-----0-------0-------0--------2---|
b--3-3---2-2---3-3---0-0---2-2----2---2---2---2-----3-3--|
g-2-----2-----0-----0-----2-----2-------2----------2-----|
d--------------------------------------------------------|
a--------------------------------------------------------|
E--------------------------------------------------------|

Mellanspel 3:
e-2h3p2-------2------2----3----|
b-------5-3-----3-----3-----2--|
g-----------2-----------2------|
d------------------------------|
a------------------------------|
E------------------------------|

Refräng 2:
    D     A     G     D
e---2-----0-----3-----2------|
b--3-3---2-2---3-3---2-3-----|
g-----2-----2-----0-----2----|
d----------------------------|
a----------------------------|
E----------------------------|   x 2 Sen:

    D     A     G     Em    A     A       A         D
e---2-----0----3-----0-------0--------0-------0--------2----|
b--3-3---2-2--3-3---0-0-----2-2-----2---2---2---2-----3-3---|
g-----2-----2----0-----0-------2--2-------2--------------2--|
d-----------------------------------------------------------|
a-----------------------------------------------------------|
E-----------------------------------------------------------|

Stick:
    D     Em7   Em
e---2-----------------|
b--3-3-----3----------|
g-2---2---0-0----0----|
d--------2------2-2---|
a--------------2---2--|
E---------------------|

När hon kommer..

Vers 3:
e-5-----5-------5-------5-----5----------|
b--7------7---7---7---7---7-----7-----3--|
g----7------7-------7-------7-----7--2---|
d----------------------------------------|
a----------------------------------------|
E----------------------------------------|

e-5-3-2-3-2-------2----|
b-----------3---3---3--|
g-------------2--------|
d----------------------|
a----------------------|
E----------------------|   x 2  Sen:

e---5-------5-------5--|
b--3--3---3---3---3----|
g-2-----2-------2------|
d----------------------|
a----------------------|
E----------------------|

Refräng 3:
e---5-----3---6----5------|
b--6-6---5-5---6----6-----|
g-5-----5-------3----5----|
d-------------------------|
a-------------------------|
E-------------------------|   x 2 Sen:

e---5-----3---6----3-------3-------3-------3--------5----|
b--6-6---5-5---6----3-----5-5----5---5---5---5-----6-6---|
g-5-----5-------3----3---5-----5-------5----------5------|
d--------------------------------------------------------|
a--------------------------------------------------------|
E--------------------------------------------------------|


Outro:
               D
e---------2---2--|
b-------3-----3--|
g-----2-------2--|
d---2---------0--|
a-2-----------0--|
E----------------|

Låtordning:
Intro  x 2
Vers
Mellanspel 2
Vers
Refräng 1
Mellanspel 3
Vers
Refräng 2
Stick  x 4
Mellanspel
Vers 3
Refräng 3
Stick  x 4
Outro


Texten:
Jag fråga vilken dag,
vilken dag det är idag,
och hon svara: Jag vet inte,
jag vet inte vilken dag det är idag.

I Marias ögon finns en värld,
inget är förbjudet där.
Jag lämnar allting om hon säger när,
när hon kommer.

Så jag fråga vilken månad,
vilken månad vi har nu,
men hon svara: Jag vet inte,
jag vet inte vilken månad vi har nu.

I Marias ögon..

Så jag fråga vilken årstid,
vilken årstid vi har nu,
och hon svara: Det är sommar,
det är sommar, det är sommar vi har nu.

I Marias ögon...

När jag visa henne snön,
när jag visa henne snön,
sa hon: Sommaren är svår,
sommaren är svaring;r, svår i år.

I Marias ögon...

-------------------------------------------------------------------

Väldigt lätt låt. Ha kul, det hade jag.
            
Hard to play? Try these video lessons and learn fast. | Correct




comments powered by Disqus
↑ Back to top | Tablatures and chords are parodies/interpretations of the original songs. You may use it for private study, scholarship, research or language learning purposes only