» » »

Cc Cowboys Bass

Artists:  A B C D E F G H I J K L M N O P Q R S T U V W X Y Z # 

Cc Cowboys Bass

(ver. 1)
Imperiet Tabs
 Rating:
4/5 (4 votes)
    Cc Cowboys lessons Tabs too difficult? Try these video lessons and learn fast
                Intro
G-----------------
D-----------------
A-3--3-4--4-3-----
E---------------3-


Vers:
G------------------------------------------
D------------------------------------------
A-3-33-3-3---------------------------------
E------------3-33-3--1-1-1-1hh--3-4-3--1---

Ref
G------------------------------
D------------------------------
E------------------------------
A3-33-3--1-1-1-1hh--3-4-3--1---
            
Submit corrections

↑ Back to top | Imperiet Bass for Cc Cowboys. Lyrics for acoustic guitar and electric guitar. Tablatures and chords are parodies/interpretations of the original songs. You may use it for private study, scholarship, research or language learning purposes only