>
 >
Stained

Stained Guitar Tabs

Imperanon - Stained chords, tabs, tablatures, lyrics

Guitar lessons | Add/correct | Request | Top 50 tabs Artists:  A B C D E F G H I J K L M N O P Q R S T U V W X Y Z 0-9

Stained Guitar Tabs – Imperanon

CD, Sheet music, Poster

Do you like Stained? Share with your friends now
Tabs
Tuning: E standard ( E A D G B E )

You can contact me at:

|----------------------------------------------------------------------------|
|----------------------------------------------------------------------------|
|--7--7--7--9------------------------------------------10--9--7--------------|
|--7--7--7--9-----------9-------10---------------------8---7--5--------9-----|
|--5--5--5--7--7--7--7----9--7------9--7--9--10--7--7------------7--7-----7--|
|----------------------------------------------------------------------------|

|-----------------------------------------------------------------------------------|
|-----------------------------------------------------------------------------------|
|--7--7--7--9-----------------------------------------------------------------------|
|--7--7--7--9-----------9-------10---------------------10--9-------9--7--9--9--7--7-|
|--5--5--5--7--7--7--7----9--7------9--7--9--10--7--7--------7--7-------------------|
|-----------------------------------------------------------------------------------|

|-------------------|
|-------------------|
|--7--7--7--9--\----|
|--7--7--7--9--\----|
|--5--5--5--7--\----|
|-------------------|

|-------------------------------------------------------------------|
|-------------------------------------------------------------------|
|--9------------------------------------------10--9--7--------------|
|--9-----------9-------10---------------------8---7--5--------9-----|
|--7--7--7--7----9--7------9--7--9--10--7--7------------7--7-----7--|
|-------------------------------------------------------------------|

|-----------------------------------------------------------------------------------|
|-----------------------------------------------------------------------------------|
|--7--------------------------------------------------------------------------------|
|--7--7--7--9-----------9-------10---------------------10--9-------9--7--9--9--7--7-|
|--5--5--5--7--7--7--7----9--7------9--7--9--10--7--7--------7--7-------------------|
|-----------------------------------------------------------------------------------|

|----------------------------------------------------------------------------|
|----------------------------------------------------------------------------|
|--7--------9------------------------------------------10--9--7--------------|
|--7--7--7--9-----------9-------10---------------------8---7--5--------9-----|
|--5--5--5--7--7--7--7----9--7------9--7--9--10--7--7------------7--7-----7--|
|----------------------------------------------------------------------------|

|-----------------------------------------------------------------------------------|
|-----------------------------------------------------------------------------------|
|--7--------9-----------------------------------------------------------------------|
|--7--7--7--9-----------9-------10---------------------10--9-------9--7--9--9--7--7-|
|--5--5--5--7--7--7--7----9--7------9--7--9--10--7--7--------7--7-------------------|
|-----------------------------------------------------------------------------------|

|-------------------------------|
|-------------------------------|
|-------------------------------|
|--5--5--------5-----7/9--7-----|
|--------9--9-----9-------------|
|-------------------------------|

|----------------------------------------------------------------------|
|----------------------------------------------------------------------|
|----------------------------------------------------------------------|
|--5--------5/9-------9\7~-------7~-------7/9~------9~-----------------|
|----------------------------------------------------------------------|
|----------------------------------------------------------------------|

|----------------------------------------------------------------------|
|----------------------------------------------------------------------|
|----------------------------------------------------------------------|
|--5--------5/9-------9\7~-------7~-------7/9~------9~-----------------|
|----------------------------------------------------------------------|
|----------------------------------------------------------------------|

|----------------------------------------------------------------------|
|-0-0-0-0-7-0-5-0-0-0-0-0-8-0-7-0-0-0-0-0-10-0-8-0--12p8-----8---------|
|---------------------------------------------------------9-----9------|
|------------------------------------------------------------------9---|
|----------------------------------------------------------------------|
|----------------------------------------------------------------------|

|-0-0-0-0-7-0-5-0-0-0-0-0-8-0-7---12p7-------7-12-10p5-----------------|
|--------------------------------------8---8-----------7-7-10p7--7-----|
|----------------------------------------9-----------------------------|
|----------------------------------------------------------------------|
|----------------------------------------------------------------------|
|----------------------------------------------------------------------|

|----------------------------------------------------------------------|
|-0-0-0-0-7-0-5-0-0-0-0-0-8-0-7-0-0-0-0-0-10-0-8-0--12p8-----8---------|
|---------------------------------------------------------9-----9------|
|------------------------------------------------------------------9---|
|----------------------------------------------------------------------|
|----------------------------------------------------------------------|

|-0-0-0-0-7-0-5-0-0-0-0-0-8-0-7---12p7-------7-10p5--------------------|
|--------------------------------------8---8--------7-7--------PH------|
|----------------------------------------9--------------7-7-7--9\------|
|----------------------------------------------------------------------|
|----------------------------------------------------------------------|
|----------------------------------------------------------------------|

|-------------------------------------------------------------------|
|-------------------------------------------------------------------|
|--9------------------------------------------10--9--7--------------|
|--9-----------9-------10---------------------8---7--5--------9-----|
|--7--7--7--7----9--7------9--7--9--10--7--7------------7--7-----7--|
|-------------------------------------------------------------------|

|-----------------------------------------------------------------------------------|
|-----------------------------------------------------------------------------------|
|--7--------------------------------------------------------------------------------|
|--7--7--7--9-----------9-------10---------------------10--9-------9--7--9--9--7--7-|
|--5--5--5--7--7--7--7----9--7------9--7--9--10--7--7--------7--7-------------------|
|-----------------------------------------------------------------------------------|

|----------------------------------------------------------------------------|
|----------------------------------------------------------------------------|
|--7--------9------------------------------------------10--9--7--------------|
|--7--7--7--9-----------9-------10---------------------8---7--5--------9-----|
|--5--5--5--7--7--7--7----9--7------9--7--9--10--7--7------------7--7-----7--|
|----------------------------------------------------------------------------|

|----------------------------------------------------------------------------------------------|
|----------------------------------------------------------------------------------------------|
|--7--------9----------------------------------------------------------------------------------|
|--7--7--7--9-----------9-------10---------------------10--9-------9--7--9--9--7--7--5--5------|
|--5--5--5--7--7--7--7----9--7------9--7--9--10--7--7--------7--7-------------------------7--7-|
|----------------------------------------------------------------------------------------------|

|----------------------------------------------------------------------|
|----------------------------------------------------------------------|
|----------------------------------------------------------------------|
|--5--------5/9-------9\7~-------7~-------7/9~------9~------(9)\-------|
|----------------------------------------------------------------------|
|----------------------------------------------------------------------|

|----------------------------------------------------------------------|
|----------------------------------------------------------------------|
|----------------------------------------------------------------------|
|--5--------5/9-------9\7~-------7~-------7/9~------9/12~--------------|
|----------------------------------------------------------------------|
|----------------------------------------------------------------------|

|----------------------------------------------------------------------|
|----------------------------------------------------------------------|
|----------------------------------------------------------------------|
|----------------------------------5-----------------------------------|
|--2-------------------------------3--3-3-3-3-3-3-3-3-3-3-3-3-3-3------|
|--0--0-0-0-0-0-0-0-0-0-0-0-0-0-0--------------------------------------|

|----------------------------------------------------------------------|
|----------------------------------------------------------------------|
|----------------------------------------------------------------------|
|--7-------------------------------9-----------------------------------|
|--5--5-5-5-5-5-5-5-5-5-5-5-5-5-5--7--7-7-7-7-7-7-7-7-7-7-7-7-7-7------|
|----------------------------------------------------------------------|

|----------------------------------------------------------------------|
|----------------------------------------------------------------------|
|----------------------------------------------------------------------|
|--5-------------------------------7-----------------------------------|
|--3--3-3-3-3-3-3-3-3-3-3-3-3-3-3--5--5-5-5-5-5-5-5-5-5-5-5-5-5-5------|
|----------------------------------------------------------------------|

|----------------------------------------------------------------------|
|----------------------------------------------------------------------|
|----------------------------------------------------------------------|
|--2-------------------------------4-----------------------------------|
|--0--0-0-0-0-0-0-0-0-0-0-0-0-0-0--2--2-2-2-2-2-2-2-2-2-2-2-2-2-2------|
|----------------------------------------------------------------------|

|----------------------------------------------------------------------|
|----------------------------------------------------------------------|
|----------------------------------------------------------------------|
|----------------------------------------------------------------------|
|--3--3-3-3-3-3-3--3--3-3-3-3-3-3--3--3-3-3-3-3-3-3-3-3-3-3-3-3-3-3-3--|
|----------------------------------------------------------------------|

|----------------------------------------------------------------------|
|----------------------------------------------------------------------|
|----------------------------------------------------------------------|
|----------------------------------------------------------------------|
|--5--5-5-5-5-5-5--5--5-5-5-5-5-5--5--5-5-5-5-5-5-5-5-5-5-5-5-5-5-5-5--|
|----------------------------------------------------------------------|

|----------------------------------------------------------------------|
|----------------------------------------------------------------------|
|----------------------------------------------------------------------|
|----------------------------------------------------------------------|
|--3--3-3-3-3-3-3--3--3-3-3-3-3-3--3--3-3-3-3-3-3-3-3-3-3-3-3-3-3-3-3--|
|----------------------------------------------------------------------|

|------------|
|------------|
|--4---------|
|--4---------|
|--2---------|
|------------|

|----------------------------------------------------------------------|
|-0-0-0-0-7-0-5-0-0-0-0-0-8-0-7-0-0-0-0-0-10-0-8-0--12p8-----8---------|
|---------------------------------------------------------9-----9------|
|------------------------------------------------------------------9---|
|----------------------------------------------------------------------|
|----------------------------------------------------------------------|

|-0-0-0-0-7-0-5-0-0-0-0-0-8-0-7---12p7-------7-12-10p5-----------------|
|--------------------------------------8---8-----------7-7-10p7--7-----|
|----------------------------------------9-----------------------------|
|----------------------------------------------------------------------|
|----------------------------------------------------------------------|
|----------------------------------------------------------------------|

|----------------------------------------------------------------------|
|-0-0-0-0-7-0-5-0-0-0-0-0-8-0-7-0-0-0-0-0-10-0-8-0--12p8-----8---------|
|---------------------------------------------------------9-----9------|
|------------------------------------------------------------------9---|
|----------------------------------------------------------------------|
|----------------------------------------------------------------------|

|-0-0-0-0-7-0-5-0-0-0-0-0-8-0-7---12p7-------7-12-10p5-----------------|
|--------------------------------------8---8-----------7-7-10p7--7--7--|
|----------------------------------------9-----------------------------|
|----------------------------------------------------------------------|
|----------------------------------------------------------------------|
|----------------------------------------------------------------------|

|----------------------------------------------------------------------|
|----------------------------------------------------------------------|
|----------------------------------------------------------------------|
|----------------------------------------------------------------------|
|--3--3-3-3-3-3-3--3--3-3-3-3-3-3--3--3-3-3-3-3-3-3-3-3-3-3-3-3-3-3-3--|
|----------------------------------------------------------------------|

|----------------------------------------------------------------------|
|----------------------------------------------------------------------|
|----------------------------------------------------------------------|
|----------------------------------------------------------------------|
|--5--5-5-5-5-5-5--5--5-5-5-5-5-5--5--5-5-5-5-5-5-5-5-5-5-5-5-5-5-5-5--|
|----------------------------------------------------------------------|

|----------------------------------------------------------------------|
|----------------------------------------------------------------------|
|----------------------------------------------------------------------|
|----------------------------------------------------------------------|
|--3--3-3-3-3-3-3--3--3-3-3-3-3-3--3--3-3-3-3-3-3-3-3-3-3-3-3-3-3-3-3--|
|----------------------------------------------------------------------|

|------------|
|------------|
|--4---------|
|--4---------|
|--2---------|
|------------|


 Guitar Solo:
|------12--14--14b15--15r14--------------------------------------------|
|--12-----------------------12--13--13/15--12--------------------------|
|----------------------------------------------14--12----------14~~----|
|------------------------------------------------------14--12----------|
|----------------------------------------------------------------------|
|----------------------------------------------------------------------|

|----------------------------------------------------------------------|
|-----------------PH---------------------------------------------------|
|------12~~-------11~~-------------12--14--14b16-\-/--\-/--\-/-16r14~~-|
|--12---------12--------12--12/14-----------------v----v----v----------|
|----------------------------------------------------------------------|
|----------------------------------------------------------------------|

|------------------------------------------------------|
|--12--15---15b17----(15)~~---------pb17r15--15--------|
|------------------------------------------------------|
|------------------------------------------------------|
|------------------------------------------------------|
|------------------------------------------------------|

|------19----20-----22--22b24----(24)r22--22----|
|--17-----17----17------------------------------|
|-----------------------------------------------|
|-----------------------------------------------|
|-----------------------------------------------|
|-----------------------------------------------|

|--19--22--20--19--17--20--19--17--15--19--17--15--|
|--------------------------------------------------|
|--------------------------------------------------|
|--------------------------------------------------|
|--------------------------------------------------|
|--------------------------------------------------|

|--14h15h17p15p14------------------------------------------------------|
|-----------------17p15p13-12h13h15p13p12------------------------------|
|-----------------------------------------14p12p11h12h14/16p14p12------|
|----------------------------------------------------------------------|
|----------------------------------------------------------------------|
|----------------------------------------------------------------------|

|----------------------------------------------------------------------|
|----------------------------------------------------------------------|
|----------------------------------------------------------------------|
|--16h17h19p17p16------------------------------------------------------|
|-----------------19p17-14h15h17p15p14---------------------------------|
|---------------------------------------17p15--14h15h17p15p14\12-------|

|----------------------------------------------------------------------|
|----------------------------------------------------------------------|
|----------------------------------------------------------------------|
|--7--\--5--5----5--5/7--7---7/9--9---7--7--7/9--9---9/10--10\9---9/7--|
|--x-----x--x----x--x----x---x----x---x--x--x----x---x-----x------x----|
|--5--\--3--3----3--3/5--5---5/7--7---5--5--5/7--7---7/8---8-\7---7\5--|

|--------------------------------------|
|--------------------------------------|
|--------------------------------------|
|--7\5---5--5/9--9---9/13---13---------|
|--x-----x--x----x---x------x----------|
|--5\3---3--3/7--7---7/11---11---------|

|----------------------------------------------------------------------|
|----------------------------------------------------------------------|
|----------------------------------------------------------------------|
|----------------------------------5-----------------------------------|
|--2-------------------------------3--3-3-3-3-3-3-3-3-3-3-3-3-3-3------|
|--0--0-0-0-0-0-0-0-0-0-0-0-0-0-0--------------------------------------|

|----------------------------------------------------------------------|
|----------------------------------------------------------------------|
|----------------------------------------------------------------------|
|--7-------------------------------9-----------------------------------|
|--5--5-5-5-5-5-5-5-5-5-5-5-5-5-5--7--7-7-7-7-7-7-7-7-7-7-7-7-7-7------|
|----------------------------------------------------------------------|

|----------------------------------------------------------------------|
|----------------------------------------------------------------------|
|----------------------------------------------------------------------|
|--5-------------------------------7-----------------------------------|
|--3--3-3-3-3-3-3-3-3-3-3-3-3-3-3--5--5-5-5-5-5-5-5-5-5-5-5-5-5-5------|
|----------------------------------------------------------------------|

|----------------------------------------------------------------------|
|----------------------------------------------------------------------|
|----------------------------------------------------------------------|
|--2-------------------------------4-----------------------------------|
|--0--0-0-0-0-0-0-0-0-0-0-0-0-0-0--2--2-2-2-2-2-2-2-2-2-2-2-2-2-2------|
|----------------------------------------------------------------------|

|----------------------------------------------------------------------|
|----------------------------------------------------------------------|
|----------------------------------------------------------------------|
|----------------------------------------------------------------------|
|--3--3-3-3-3-3-3--3--3-3-3-3-3-3--3--3-3-3-3-3-3-3-3-3-3-3-3-3-3-3-3--|
|----------------------------------------------------------------------|

|----------------------------------------------------------------------|
|----------------------------------------------------------------------|
|----------------------------------------------------------------------|
|----------------------------------------------------------------------|
|--5--5-5-5-5-5-5--5--5-5-5-5-5-5--5--5-5-5-5-5-5-5-5-5-5-5-5-5-5-5-5--|
|----------------------------------------------------------------------|

|----------------------------------------------------------------------|
|----------------------------------------------------------------------|
|----------------------------------------------------------------------|
|----------------------------------------------------------------------|
|--3--3-3-3-3-3-3--3--3-3-3-3-3-3--3--3-3-3-3-3-3-3-3-3-3-3-3-3-3-3-3--|
|----------------------------------------------------------------------|

|------------|
|------------|
|--4---------|
|--4---------|
|--2---------|
|------------|

|----------------------------------------------------------------------|
|-0-0-0-0-7-0-5-0-0-0-0-0-8-0-7-0-0-0-0-0-10-0-8-0--12p8-----8---------|
|---------------------------------------------------------9-----9------|
|------------------------------------------------------------------9---|
|----------------------------------------------------------------------|
|----------------------------------------------------------------------|

|-0-0-0-0-7-0-5-0-0-0-0-0-8-0-7---12p7-------7-12-10p5-----------------|
|--------------------------------------8---8-----------7-7-10p7--7-----|
|----------------------------------------9-----------------------------|
|----------------------------------------------------------------------|
|----------------------------------------------------------------------|
|----------------------------------------------------------------------|

|----------------------------------------------------------------------|
|-0-0-0-0-7-0-5-0-0-0-0-0-8-0-7-0-0-0-0-0-10-0-8-0--12p8-----8---------|
|---------------------------------------------------------9-----9------|
|------------------------------------------------------------------9---|
|----------------------------------------------------------------------|
|----------------------------------------------------------------------|

|-0-0-0-0-7-0-5-0-0-0-0-0-8-0-7---12p7-------7-10p5--------------------|
|--------------------------------------8---8--------7-7--------PH------|
|----------------------------------------9--------------7-7-7--9\------|
|----------------------------------------------------------------------|
|----------------------------------------------------------------------|
|----------------------------------------------------------------------|

|-------------------------------------------------------------------|
|-------------------------------------------------------------------|
|--9------------------------------------------10--9--7--------------|
|--9-----------9-------10---------------------8---7--5--------9-----|
|--7--7--7--7----9--7------9--7--9--10--7--7------------7--7-----7--|
|-------------------------------------------------------------------|

|-----------------------------------------------------------------------------------|
|-----------------------------------------------------------------------------------|
|--7--------------------------------------------------------------------------------|
|--7--7--7--9-----------9-------10---------------------10--9-------9--7--9--9--7--7-|
|--5--5--5--7--7--7--7----9--7------9--7--9--10--7--7--------7--7-------------------|
|-----------------------------------------------------------------------------------|

|----------------------------------------------------------------------------|
|----------------------------------------------------------------------------|
|--7--------9------------------------------------------10--9--7--------------|
|--7--7--7--9-----------9-------10---------------------8---7--5--------9-----|
|--5--5--5--7--7--7--7----9--7------9--7--9--10--7--7------------7--7-----7--|
|----------------------------------------------------------------------------|

|-----------------------------------------------------------------------------------|
|-----------------------------------------------------------------------------------|
|--7--------------------------------------------------------------------------------|
|--7--7--7--9-----------9-------10---------------------10--9-------9--7--9--9--7--7-|
|--5--5--5--7--7--7--7----9--7------9--7--9--10--7--7--------7--7-------------------|
|-----------------------------------------------------------------------------------|

|----------------------------------------------------------------------------|
|----------------------------------------------------------------------------|
|--7--7--7--9------------------------------------------10--9--7--------------|
|--7--7--7--9-----------9-------10---------------------8---7--5--------9-----|
|--5--5--5--7--7--7--7----9--7------9--7--9--10--7--7------------7--7-----7--|
|----------------------------------------------------------------------------|

|-------------------|
|-------------------|
|--7--7--7--9--\----|
|--7--7--7--9--\----|
|--5--5--5--7--\----|
|-------------------|





Comments


Popular Imperanon tabs & chords
Blade Tabs
Hollow Man Tabs
Rhythm Of Pain Tabs
Sold Tabs
Sold Intro Tabs
Vein I Bleed Intro Tabs


Song lyrics



↑ Back to top | Tablatures and chords are parodies/interpretations of the original songs. You may use it for private study, scholarship, research or language learning purposes only
© 2014 AZChords.com Contact us | Privacy policy | DMCA | Add/correct tabs | Request tabs | Top 50 tabs