>
 >
Sold

Sold Guitar Tabs

Imperanon - Sold chords, tabs, tablatures, lyrics

Guitar lessons | Add/correct | Request | Top 50 tabs Artists:  A B C D E F G H I J K L M N O P Q R S T U V W X Y Z 0-9

Sold Guitar Tabs – Imperanon

CD, Sheet music, Poster

Do you like Sold? Share with your friends now
Tabs
Tuning: E standard ( E A D G B E )

Intro:

E||--------------12-----------10-----------------------|
B||--------12-----------12--------------10--12--10-----|
G||--9--9------9-----9------9-----9--9-------------11--|
D||----------------------------------------------------|
A||----------------------------------------------------|
E||----------------------------------------------------|
 
|--------------------------------------------------------------|
|----------13-----15-----13---------------------12--10---------|
|--12--12-----12-----12------12\11--11--12--11---------12--11--|
|--------------------------------------------------------------|
|--------------------------------------------------------------|
|--------------------------------------------------------------|
 
|--------------12-----------10-----------------------|
|--------12-----------12--------------10--12--10-----|
|--9--9------9-----9------9-----9--9-------------11--|
|----------------------------------------------------|
|----------------------------------------------------|
|----------------------------------------------------|
 
|----------------------------17p14----------12-14p11----------11-|
|---------13----15----13-----------15----15----------12----12----|
|--12--12----12----12----12-----------14----------------11-------|
|----------------------------------------------------------------|
|----------------------------------------------------------------|
|----------------------------------------------------------------|
 
|-----------------------|
|-----------------------|
|--9~~~---(9)\----------|
|-----------------------|
|-----------------------|
|-----------------------|
 
|---------------12-----------10-----------------------|
|---------12-----------12--------------10--12--10-----|
|*--9--9------9-----9------9-----9--9-------------11--|
|*----------------------------------------------------|
|-----------------------------------------------------|
|-----------------------------------------------------|
 
|--------------------------------------------------------------|
|----------13-----15-----13---------------------12--10---------|
|--12--12-----12-----12------12\11--11--12--11---------12--11--|
|--------------------------------------------------------------|
|--------------------------------------------------------------|
|--------------------------------------------------------------|
 
|--------------12-----------10-----------------------|
|--------12-----------12--------------10--12--10-----|
|--9--9------9-----9------9-----9--9-------------11--|
|----------------------------------------------------|
|----------------------------------------------------|
|----------------------------------------------------|
 
|----------------------------17p14----------12-14p11----------11--|
|---------13----15----13-----------15----15----------12----12-----|
|--12--12----12----12----12-----------14----------------11-------*|
|----------------------------------------------------------------*|
|-----------------------------------------------------------------|
|-----------------------------------------------------------------|

|------------------|
|------------------|
|--9--9----9--9\---|
|------------------|
|------------------|
|------------------|


Guitar Solo 1 - Lauri Koskenniemi

|--22b24~~----22~~-----19---(19)b20r19---24--19--17--19--17--------------|
|------------------------------------------------------------19--22--17--|
|------------------------------------------------------------------------|
|------------------------------------------------------------------------|
|------------------------------------------------------------------------|
|------------------------------------------------------------------------|

|--22--19--17--19--17---------------24--19--17--19--17-----------------|
|----------------------19--22--17-----------------------19--22--17-----|
|----------------------------------------------------------------------|
|----------------------------------------------------------------------|
|----------------------------------------------------------------------|
|----------------------------------------------------------------------|

|--20-19-17--------------------------------------------------------15--|
|-----------20-19-17-----------------------------------------17--------|
|--------------------19-17-16-------------------------16---------------|
|-----------------------------19-17-16----14--17--14------14----14-----|
|----------------------------------------------------------------------|
|----------------------------------------------------------------------|

|---------------------19-----20--------------19-----20-----19------|
|--------------17--------------------17----------------------------|
|------16------------------------16------16------16-----16-----16--|
|--14------14-----14------x----------------------------------------|
|------------------------------------------------------------------|
|------------------------------------------------------------------|

|--22----20-----19-----17---|
|---------------------------|
|-----16-----16----16-------|
|---------------------------|
|---------------------------|
|---------------------------|

|--15h17h19t20p19p17p15--------------------------------------------|
|-----------------------15h17h19t20p19p17p15-----------------------|
|--------------------------------------------14h16h17t19p17p16p14--|
|------------------------------------------------------------------|
|------------------------------------------------------------------|
|------------------------------------------------------------------|

|-------------------------------------------------------------------|
|-------------------------------------------------------------------|
|-------------------------------------------------------------------|
|--14h16h17t19p17p16p14--12h14h16t17p16p14p12-----------------------|
|---------------------------------------------12h14h15t17p15p14p12--|
|-------------------------------------------------------------------|

|----------------------------------------------|
|----------------------------------------------|
|----------------------------------------------|
|----------------------------------------------|
|----------------------------------------------|
|--14h15h17t19p17p15p14--12h14h15t17p15p14p12--|


 Guitar Solo 2 - Aleksi Sihvonen
|-----------------------------------------------------------------------|
|--8b10--8b10--8b10--5--8b10---8b10r8--5---5----------------------------|
|------------------------------------------5--------------5-------------|
|---------------------------------------------7--7--5--5----7--7--5--5--|
|-----------------------------------------------------------------------|
|-----------------------------------------------------------------------|


|--------------------------------------------------------|
|--/13--12--12-----10--13p12p10--------------------------|
|---------------9---------------12p10p9------------------|
|---------------------------------------12p10p9-9-10-12--|
|--------------------------------------------------------|
|--------------------------------------------------------|

|-----------------------------------------------|
|-----------------------------------------------|
|--9-10-12-10-9---------------------------------|
|----------------12-10-9-10-12-10-9-------------|
|------------------------------------10/12~~----|
|-----------------------------------------------|


|---------------------------------------------------------|
|---------------------------------------------------------|
|---------------------------------------------------------|
|--7-7-7-7-7-9-9-9-10-10-10-10-10-10-12-12-12-14---15~~---|
|---------------------------------------------------------|
|---------------------------------------------------------|





Comments


Popular Imperanon tabs & chords
Blade Tabs
Hollow Man Tabs
Rhythm Of Pain Tabs
Sold Intro Tabs
Stained Tabs
Vein I Bleed Intro Tabs


Song lyrics



↑ Back to top | Tablatures and chords are parodies/interpretations of the original songs. You may use it for private study, scholarship, research or language learning purposes only
© 2014 AZChords.com Contact us | Privacy policy | DMCA | Add/correct tabs | Request tabs | Top 50 tabs