>
 >
Rhythm Of Pain

Rhythm Of Pain Guitar Tabs

Imperanon - Rhythm Of Pain chords, tabs, tablatures, lyrics

Guitar lessons | Add/correct | Request | Top 50 tabs Artists:  A B C D E F G H I J K L M N O P Q R S T U V W X Y Z 0-9

Rhythm Of Pain Guitar Tabs – Imperanon

CD, Sheet music, Poster

Do you like Rhythm Of Pain? Share with your friends now
Tabs
Part tabbed: Mainly Lead, Some Rhythm
Tuning: Standard (EADGBe)

LEGEND:
. under note= palm mute
\ or /= Slide
PS>= Pick Slide
~= Extended note or Swiveled Note
<>= Harmonic

Although it is difficult to tab out the timing; this song is fairly simple, but if not I 
playing it with the song.
Enjoy :]


(Intro)
e----------------------------------------------------------|
B---------------------------8-9-8-6------------------------|
G-8-7-5--------8-7-5-7-778----------8-7-5--7-5-------------|
D-------6--666---------------------------------8-6-5-------|
A----------------------------------------------------------|
E----------------------------------------------------------| x2

(Verse)
(I believe this verse is really divided between the two guitars)
e-----------------------------------------------------------------------|
B-----------------------------------------------------------------------|
G-----------------------------------------------------------------------|
D--5555-555-555-5356666-666-666-6656666--356-356-356--------------------|
A--3333-333-333-3333333-333-666-6655555--555-555-5553333-3335555-555----|
E---------------------------------------------------4444-3433333-333----|

e-----------------------------------------------------------------------|
B-----------------------------------------------------------------------|
G-----------------------------------------------------------------------|
D--5555-555-555-5356666-666-666-6656666--356-356-356--------------------|
A--3333-333-333-3333333-333-666-6655555--555-555-5553333-33355555555----|
E---------------------------------------------------4444-34333333333----|

Play Intro Again.

e-----------------------------------------------------------------------|
B-----------------------------------------------------------------------|
G-----------------------------------------------------------------------|
D--5555-555-555-5356666-666-666-6656666--356-356-356--------------------|
A--3333-333-333-3333333-333-666-6655555--555-555-5553333-3335555-555----|
E---------------------------------------------------4444-3433333-333----|

e--------------------------------------------------------------|
B--------------------------------------------------------------|
G-------------------------------5-3/5-3---------5-3/5-3--------|
D--6--------------6-------------5-------3-5-3---5-------353----|
A--6--/6-5-565----6--/6-5-565---3------------5--3-----------5--|
E--4-----------6--4-----------6--------------------------------| X3

e------------------------------------------------------------------|
B------------------------------------------------------------------|
G-------------------------------5---3/5-3---------5--3/5-3---------|
D--6--------------6-------------5--------3-5-3----5--------353-----|
A--6---/6-5-565---6---/6-5-565--333------------5--333---------5----|
E--444----------6-444---------6------------------------------------|

Repeat intro once


(Listen to the song when you play this to figure out the rhythm the notes are played)
e----------------------------------------------|
B----------------------------------------------|
G--5-5--8-7-5-7-7-7--10-8-7-8~\----------------|
D----------------------------------------------|
A----------------------------------------------|
E----------------------------------------------|

e----------------------------------------------|
B----------------------------------------------|
G--5-5-8-7-5-7-7-7-10-8-7-8~-7~-8~-10~-12~-----|
D----------------------------------------------|
A----------------------------------------------|
E----------------------------------------------|

(Bridge)
e------------------------------------------------------------------|
B-----------------------------8------------------------------------|
G-8-7--/5~-------------7-78--7----------7~----7-78-----------------|
D-------------10--8-10-----10---8-10-12---8-10-----8-10-10-8-10-10-|
A------------------------------------------------------------------|
E---------PS>------------------------------------------------------|
                  .  .      .   .  .  .   .  .     .  .    .  .

e-----------------------------------------------------------------|
B-------------------------------------------8---6---8-9-8-6-------|
G-----------------------------------------8---88-88--------8-7-5--|
D-12-8-8-12-8-8-10-8-8-12-8-8-10-8-8-10-12----------------------8-|
A-----------------------------------------------------------------|
E-----------------------------------------------------------------|
     . .    . .    . .    . .    . .

e-----------------------------11-15-11-------------------------------|
B-------------------------------------13-13-16-13--13----13----------|
G------------------------------------------------12--12----12--12----|
D--/5-5--8-7-5-7--7-10-8-7-8~\-------------------------13----13------|
A----------------------------------------------------------------15~-|
E--------------------------------------------------------------------|

e------8--10-11--8-10-------10--13-11-------------------|
B-----8-------------------10----------------------------|
G----9------------------11-----------7-8~-7~-8~-10~-12~-|
D--10-----------------12--------------------------------|
A-------------------------------------------------------|
E-------------------------------------------------------|

(Verse)
(Catch the difference this time around)
e-----------------------------------------------------------------|
B-----------------------------------------------------------------|
G-----------------------------5-3/5-3----------5-3/5-3------------|
D--6-------------6------------5-------3-5-3----5------353---------|
A--6--/6-5-565---6--/6-5-565--3------------5---3---------5--------|
E--4-----------6-4----------6-------------------------------------|

e-----------------------------------------------------------------|
B-----------------------------------------------------------------|
G----------------------------3--5-3/5-3--------5-3/5-3------------|
D--6-------------6----------5---5------3-5-3---5-------353--------|
A--6--/6-5-565---6--/6-5-56-----3-----------5--3----------5-------|
E--4----------6--4------------------------------------------------| X2

(Ending Solo)
e----------------------------------------------\13-11~~\11-10b11-8--8-8------|
B-------------------------------13\11--11b13rb~-------------------11-8-6brbr-|
G---------------8-10-12-<12>\-8~-----12--------------------------------------|
D--6666------10--------------------------------------------------------------|
A--6666-565------------------------------------------------------------------|
E--4444----6-----------------------------------------------------------------|

e---------20~~---------18~~---23b25r23---22b23r22-20-18-20--18---------------|
B----20---------20----------------------------------------18---18b20r18~\----|
G--17--17-----17--17---------------------------------------------------------|
D----------------------------------------------------------------------------|
A----------------------------------------------------------------------------|
E----------------------------------------------------------------------------|





Comments


Popular Imperanon tabs & chords
Blade Tabs
Hollow Man Tabs
Sold Tabs
Sold Intro Tabs
Stained Tabs
Vein I Bleed Intro Tabs


Song lyrics



↑ Back to top | Tablatures and chords are parodies/interpretations of the original songs. You may use it for private study, scholarship, research or language learning purposes only
© 2014 AZChords.com Contact us | Privacy policy | DMCA | Add/correct tabs | Request tabs | Top 50 tabs