» » »

Hollow Man Tabs (ver.1)

Artists:  A B C D E F G H I J K L M N O P Q R S T U V W X Y Z # 

Hollow Man Tabs (ver.1)

Imperanon
Rating:
0/5 (0 votes)

Hard to play? Try these video lessons and learn fast.
                imperanon - Hollow man solo!!

eBGDAE

e|---------------------------------------------------------------------------|
B|-13b----12-----12-13-12----------------------------------------------------|
G|----------------------------------14-13-12---12-------------------12-13-14-|
D|-------------------------14---12-----------14--14-13-12---12-13-14---------|
A|--------------------------------------------------------15-----------------|
E|---------------------------------------------------------------------------|
      T      T       T      T       T     T        T     T
e|----17-12-17-12-11-17-12-17-12-11-19-12-19-12-11-19-12-19-12-11-20--------|
B|-13-----------------------------------------------------------------------|
G|--------------------------------------------------------------------------|
D|--------------------------------------------------------------------------|
A|--------------------------------------------------------------------------|
E|--------------------------------------------------------------------------|
                                                                         T
e|-19-20-17-----20-17-22-17-22b---------17-15-13--------------------8-12-17-|
B|-----------------------------------------------17-15-13---------10--------|
G|--------------------------------------------------------16-14-12----------|
D|--------------------------------------------------------------------------|
A|--------------------------------------------------------------------------|
E|--------------------------------------------------------------------------|
      T
e|-12-17-12-8-----12---10--8----7-8--------------12-0-0-0-5-0-0-0-7-0-0-0-10-|
B|------------10---------------------10--------------------------------------|
G|---------------------------------------------------------------------------|
D|---------------------------------------------------------------------------|
A|---------------------------------------------------------------------------|
E|---------------------------------------------------------------------------|

e|-0-0-0--12----------------------------------------------------------------|
B|--------------13--10--13----10--------------------------------------------|
G|-------------------------------12b------12-----9--7b---7b7--5--7---5------|
D|-----------------------------------------------------------------------5--|
A|--------------------------------------------------------------------------|
E|--------------------------------------------------------------------------|

e|-----------------------------------|
B|-----------------------------------|
G|-----------------------------------|
D|-------7--7------------------------|
A|-----------------------------------|
E|-----------------------------------|  \,,/
            
Hard to play? Try these video lessons and learn fast. | Correct




comments powered by Disqus
↑ Back to top | Tablatures and chords are parodies/interpretations of the original songs. You may use it for private study, scholarship, research or language learning purposes only