>
 >
Blade

Blade Guitar Tabs

Imperanon - Blade chords, tabs, tablatures, lyrics

Guitar lessons | Add/correct | Request | Top 50 tabs Artists:  A B C D E F G H I J K L M N O P Q R S T U V W X Y Z 0-9

Blade Guitar Tabs – Imperanon

CD, Sheet music, Poster

Do you like Blade? Share with your friends now
Tabs
So I made this tab...sounds 100% correct except for the riffs.
You may need to change the notes to where it feels right for you to play, but hey this 
for me.


Standard tuning (eBGDAE)

h= Hammer on
p= Pull off
/\= slide up or down
.= palm mute
~= Swivel...wavy note


E12-10-8---------10-8-7-----------------------------------------------------|
B--------12-10-8-------10𨃋---500700500800500700---10p8p7h8p7-------------|
G--------------------------------------------------------------8------------|
D---------------------------------------------------------------------------|
A---------------------------------------------------------------------------|
E---------------------------------------------------------------------------|


E-----------------------8------10-8-7----------------------------------------|
B--500700500800-8-10-12---12-10------10-8-7--500700500800500700-10p8p7h8p7---|
G--------------------------------------------------------------------------8-|
D----------------------------------------------------------------------------|
A----------------------------------------------------------------------------|
E----------------------------------------------------------------------------|

E----------------------7-8-10-12-10-8----------------------------------------|
B--500700500800-7-8-10---------------12-10-8--500700500800500700-10p8p7h8p7--|
G--------------------------------------------------------------------------8-|
D----------------------------------------------------------------------------|
A----------------------------------------------------------------------------|
E----------------------------------------------------------------------------|

E---------------7----5----3----2--------------------------------------------|
B--500700500800---8-7--7-5--5-3--3-0-500700500800500700-10p8p7h8p7----------|
G------------------------------------------------------------------8--------|
D---------------------------------------------------------------------------|
A---------------------------------------------------------------------------|
E---------------------------------------------------------------------------|

E--------------12-10-8--------------7-8-15-12~~-----------------------------|
B--500700500800-------12-10-8-7-8-10----------------------------------------|
G---------------------------------------------------------------------------|
D---------------------------------------------------------------------------|
A---------------------------------------------------------------------------|
E---------------------------------------------------------------------------|

E---------------------------------------------------------------------------|
B---------------------------------------------------------------------------|
G---------------------------------------------------------------------------|
D---------------------------5-4-5-------------------------------------------|
A--2--------5-4-5-2---------3-2-3-2--------5-4-5----------------------------|
E--0000000003-2-3-000000000-------00000000-3-2-3----------------------------|
    ........       ........        .......

E|--8-12--9-12--12-14--12-14-----------------------------------------------|
B|-8----10----10-----12----------------------------------------------------|
G|-------------------------------------------------------------------------|
D|-------------------------------2-22222-22222-22222-22222-22222-222-------|
A|-------------------------------------------------------------------------|
E|-------------------------------------------------------------------------|
|x2|                             . ..... ..... ..... ..... ..... ...


E|-------------------------------------------------------------------------|
B|-------------------------------------------------------------------------|
G|-------------------------------------------------------------------------|
D|-222222222222222222------222222222222222222552333------------------------|
A|-------------------333555------------------------------------------------|
E|-------------------------------------------------------------------------|
   ................................................
|x2|

E--12-10-8-------10-----7-8-10----------------------------------------------|
B---------12-10-8---8-10------5~~7~~8~~10~~---------------------------------|
G---------------------------------------------------------------------------|
D---------------------------------------------------------------------------|
A---------------------------------------------------------------------------|
E---------------------------------------------------------------------------|


E--10p7---710p7--------------------------7-8-10-12p8------8-12p8--8-10-12---|
B------8-8------8-10p8-7-12p8---8-7-8-10------------10-10-------10----------|
G-------7--------------------9-9----------------------9---------------------|
D-----------------------------9---------------------------------------------|
A---------------------------------------------------------------------------|
E---------------------------------------------------------------------------|


E--14p10------10-14-12-10------------------10p7--8-7------------------------|
B-------12--12-----------13-12-10--X2-then-----10---10-8~-------------------|
G---------12----------------------------------------------------------------|
D---------------------------------------------------------------------------|
A---------------------------------------------------------------------------|
E---------------------------------------------------------------------------|


E---------------------------------------------------------------------------|
B----------------------1300120010001200150017\------------------------------|
G---------------------------------------------------------------------------|
D-5------3577-----5799------------------------5------3577------5794-4\-5-74-|
A-3333357---555579---7------------------------3333357---5555579---2-2\-3-52-|
E---------------------------------------------------------------------------|
   ...       ...      ...                      ...       ...

E-15p12------12-15p12------12-17p14------14-17p14------14-19p15------15-19p15-14-17-15-14-|
B------13--13--------13--13--------15--15--------15--15--------17--17---------------------|
G--------12------------12------------14------------14------------16-----------------------|
D-----------------------------------------------------------------------------------------|
A-----------------------------------------------------------------------------------------|
E-----------------------------------------------------------------------------------------|


E-17p14------14-17p14--------15p12------12--15p12---------------------------|
B------15--15--------15--1517-----13--13---------13--1315-------------------|
G--------14------------14-----------12-------------12-----------------------|
D---------------------------------------------------------------------------|
A---------------------------------------------------------------------------|
E---------------------------------------------------------------------------|


E---------------------------------------------------------------------------|
B----------------------------12-14-15---------------------------------------|
G-------------------11-12-14------------------------------------------------|
D----------10-12-14-------------------------------------5-------------------|
A-10-12-14---------------------------0-0000-0000-000000-3-------------------|
E---------------------------------------------------------------------------|
  .  .  .  .  .  .  .  .  .  .  .  . . .... .... ......

E-12---------------------12--------------14------15-------------------------|
B---10--13-12-10-15-13-12--13-12-15-13-12--13-12---13-12--------------------|
G---------------------------------------------------------------------------|
D---------------------------------------------------------------------------|
A---------------------------------------------------------------------------|
E---------------------------------------------------------------------------|

And song repeats, then comes in the solo, which is not included in this tab.
Have fun with this, although tabs may be hard to follow this is 100% perfect!





Comments


Popular Imperanon tabs & chords
Hollow Man Tabs
Rhythm Of Pain Tabs
Sold Tabs
Sold Intro Tabs
Stained Tabs
Vein I Bleed Intro Tabs


Song lyrics



↑ Back to top | Tablatures and chords are parodies/interpretations of the original songs. You may use it for private study, scholarship, research or language learning purposes only
© 2014 AZChords.com Contact us | Privacy policy | DMCA | Add/correct tabs | Request tabs | Top 50 tabs