» » »

Revival America Tabs (ver.1)

Artists:  A B C D E F G H I J K L M N O P Q R S T U V W X Y Z # 

Revival America Tabs (ver.1)

Impending Doom
Rating:
4/5 (1 vote)

Hard to play? Try these video lessons and learn fast.
                hit me up if you feel its wrong or notice mistakes
AIM - bert21895 
tuning - Drop A
Legend - '/' = slide "." = palm mute

LEAD
|-------13-12-------------|
|5/8-10-------------------|
|-------------------------|
|-------------------------|
|-------------------------|
|-------------------------|
|-------------------------|
RHYTHM 
|---------------------------------------------------------------------------|
|---------------------------------------------------------------------------|
|---------------------------------------------------------------------------|
|---------------------------------------------------------------------------|
|0-0------------------------------------------------------------------------|
|0-0------------------------------------------------------------------------|
|1-1------------------------------------------------------------------------|
 . .(7 times)

sorry its half assed


BOBBY FTW
            
Hard to play? Try these video lessons and learn fast. | Correct




comments powered by Disqus
↑ Back to top | Tablatures and chords are parodies/interpretations of the original songs. You may use it for private study, scholarship, research or language learning purposes only