» » »

More Than Conquerors Tabs (ver.2)

Artists:  A B C D E F G H I J K L M N O P Q R S T U V W X Y Z # 

More Than Conquerors Tabs (ver.2)

Impending Doom
Rating:
4/5 (2 votes)

Hard to play? Try these video lessons and learn fast.
                -------------------------------------------------------------------------------
                        More Than Conquerors Breakdown Riff – Impending Doom
-------------------------------------------------------------------------------

Tuning: Drop A (BF#DaEA)

This is the riff for that epic breakdown that starts at 2:30 in the song.
It’s my very first tab, so go easy on me if you don’t like it.

part” list when I submitted it.

B|------------------------------------------------------|
F#|-----------------------------------------------------|
D|------------------------------------------------------|
A|---------------------------------------4--------------|
E|1b--0------1b--0--0------1b---0--------------1b----0--|
A|------------------------------------------------------|

B|------------------------------------------------------------|
F#|-----------------------------------------------------------|
D|------------------------------------------------------------|
A|--------------------------------------------0-0-0----0-0-0--|
E|1b---0------1b--0--0--------1b----0---------1-1-1----1-1-1--|
A|--------------------------------------------0-0-0----0-0-0--|

Repeat 5 times and at the end of the sixth time, do this

B|--------------------------------------------------------------------------------------|
F#|-------------------------------------------------------------------------------------|
D|--------------------------------------------------------------------------------------|
A|0-0-0-----0-0-0----------------0-0-0--------------------------------------------------|
E|1-1-1-----1-1-1----------------4-4-4--------------------------------------------------|
A|0-0-0-----0-0-0----------------0-0-0--------------------------------------------------|


I’ve also tabbed out the high-pitched recurring sounds that go through out the 
2:15-2:42

The notes in the brackets mean that you should still strum them while you’re bending the note.

B|----------------------------------------------------------------------------|
F#|---------------------------------------------------------------------------|
D|9-9-9-9-9-9-9-9-9b[9 9 9]-9r-9-9-9------8-8-8-8-8-8-8-8-8b[8 8 8]-8r-8-8-8--|
A|----------------------------------------------------------------------------|
E|----------------------------------------------------------------------------|
A|----------------------------------------------------------------------------|

Anyway, that’s it. This wasn’t very hard to tab out, but you may have difficulty tuning
guitar down to Drop A. I use a Korg GA-30. If you use that too, then you just need to
the “flat” button five times, then tune as normal.

Enjoy!



************************************

| /   slide up
| \   slide down
| h   hammer-on
| p   pull-off
| ~   vibrato
| +   harmonic
| x   Mute note
| b   Bend
| pb  Pre-bend
| r  Bend release
| pbr Pre-bend release
| brb Bend release bend

************************************
            
Hard to play? Try these video lessons and learn fast. | Correct




comments powered by Disqus
↑ Back to top | Tablatures and chords are parodies/interpretations of the original songs. You may use it for private study, scholarship, research or language learning purposes only