» » »

Impending Doom, Love Has Risen Tabs (ver.1)

Artists:  A B C D E F G H I J K L M N O P Q R S T U V W X Y Z # 

Love Has Risen Tabs (ver.1)

Impending Doom Tabs
 Rating:
3.6/5 (7 votes)
Love Has Risen lessons Tabs too difficult? Try these video lessons and learn fast
                Tuning:
6 string Drop A (A-E-A-D-F---|B)
7----------------------------| String Drop A (A-E-A-D-G-B-E)

This instrumental is my favorite song off of There Will Be Violence. It just makes your 
soul rise up to the heavens :) amazing song. IMPENDING DOOM IS THE BEST DEATHCORE BAND 
OF ALL TIME!!! \m/

I'm going to show you the tab for the 6 string part (this song is played with a 7 string 
but I'm using a 6 string so that's the part I'm going to show you lol)

B|------------------------------------------|
F#|-----------------------------------------|
D|------------------------------------------|
A|--7~~--10~~~~~~---7~~-----10~----14~~~~~--|
E|--5~~--8~~~~~~~---5~~-----8~~----12~~~~~--|
A|--0~~-------------0~~---------------------|

B|------------------------------------------|
F#|-----------------------------------------|
D|------------------------------------------|
A|--7~~---14~~~~----7~~---14~~----10~-------|
E|--5~~---12~~~~----5~~---12~~----8~~-------|
A|--0~~-------------0~~---------------------|

Repeat that a couple times... then get to the open part and let it ring.

B|------------------------------------------|
F#|-----------------------------------------|
D|------------------------------------------|
A|--0~~~~~~~~~~~~~~~~~~~~~~~~~~~------------|
E|--0~~~~~~~~~~~~~~~~~~~~~~~~~~~------------|
A|--0~~~~~~~~~~~~~~~~~~~~~~~~~~~------------|

then to this part...

B|------------------------------------------| x3
F#|-8---10---8-----------8---10----13---10--|
D|---------------9---9----------------------|
A|------------------------------------------|
E|------------------------------------------|
A|------------------------------------------|

B|---------------------------10b-10b-10b-10--|b
F#|--8--10---8---------8-10------------------|
D|---------------9--9------------------------|
A|-------------------------------------------|
E|-------------------------------------------|
A|-------------------------------------------|

repeat that a couple times and then it gets to this part...

B|---13-13---------16----------------------------------|
F#|---------13-13------13-14--15h16--16--16---------13-|
D|-------------------------------------------13-13-----|
A|-----------------------------------------------------|
E|-----------------------------------------------------|
A|-----------------------------------------------------|

B|---13-13---------16----------------------------------|
F#|---------13-13------13-14--15h16--16--16------------|
D|-------------------------------------------13-13--12-|
A|-----------------------------------------------------|
E|-----------------------------------------------------|
A|-----------------------------------------------------|

Repeat ^^

Then here...
Those are 10's. not 1's and 0's.

B|--------------------------------------------------------------------|
F#|-------------------------------------------------------------------|
D|--------------------------------------------------------------------|
A|---1010101010101010-------------------------------------------------|
E|---8-8-8-8-8-8-8-8----66666666---11-11-11-11-11-11-11-11---11111111-|
A|----------------------66666666---11-11-11-11-11-11-11-11---11111111-|


B|--------------------------------------------------------------------|
F#|-------------------------------------------------------------------|
D|--------------------------------------------------------------------|
A|---1010101010101010--1212121212121212--1313131313131313--15151515x2-|
E|---8-8-8-8-8-8-8-8---1010101010101010--1111111111111111--13131313x2-|
A|--------------------------------------------------------------------|
            
Submit corrections

comments powered by Disqus
↑ Back to top | Impending Doom Tabs for Love Has Risen. Lyrics for acoustic guitar and electric guitar. Tablatures and chords are parodies/interpretations of the original songs. You may use it for private study, scholarship, research or language learning purposes only