>
 >
Death Ascension Resurection

Death Ascension Resurection Guitar Tabs

Impending Doom - Death Ascension Resurection chords, tabs, tablatures, lyrics

Guitar lessons | Add/correct | Request | Top 50 tabs Artists:  A B C D E F G H I J K L M N O P Q R S T U V W X Y Z 0-9

Death Ascension Resurection Guitar Tabs – Impending Doom

CD, Sheet music, Poster

Do you like Death Ascension Resurection? Share with your friends now
Tabs
------------------------------------------------------------------------------- 
              DEATH. ASCENSION. RESURECTION - Impending Doom
-------------------------------------------------------------------------------

Tuning:A,E,A,D,F#,B (drop 7 string) i use a 6 string


      0.00                                        
      PM                          PM PM PM PM PM PM PM PM PM PM PM PM  
      S                           S  S  S  E  S  S  S  S  S  S  E  E   
B ||------------------------------------------------------------------|
F#||------------------------------------------------------------------|
D ||------------------------------------------------------------------|
A ||------------------------------------------------------------------|
E ||--1---------------------------1--1--1--1--1--1--1--1--1--1--1--1--|
A ||--1---------------------------1--1--1--1--1--1--1--1--1--1--1--1--|


  PM PM PM PM PM PM PM PM PM PM PM PM     
  S  S  S  S  E  S  S  S  S  S  S  E  E   
-----------------------------------------|
-----------------------------------------|
-----------------------------------------|
--------------------------------------4--|
--1--1--1--1--1--1--1--1--1--1--1--1--1--|
--1--1--1--1--1--1--1--1--1--1--1--1--2--|


  PM PM PM PM PM PM PM PM PM PM PM PM     
  S  S  S  S  E  S  S  S  S  S  S  E  E   
-----------------------------------------|
-----------------------------------------|
-----------------------------------------|
--------------------------------------3--|
--1--1--1--1--1--1--1--1--1--1--1--1--0--|
--1--1--1--1--1--1--1--1--1--1--1--1--1--|


  PM PM PM PM PM PM PM PM PM PM PM PM     
  S  S  S  S  E  S  S  S  S  S  S  E  E   
-----------------------------------------|
-----------------------------------------|
-----------------------------------------|
--------------------------------------4--|
--0--0--0--0--0--0--0--0--0--0--0--0--1--|
--0--0--0--0--0--0--0--0--0--0--0--0--2--|


  PM PM PM PM PM PM PM PM PM PM PM PM PM  
  S  S  S  S  E  S  S  S  S  S  S  E  E   
-----------------------------------------|
-----------------------------------------|
-----------------------------------------|
-----------------------------------------|
--1--1--1--1--1--1--1--1--1--1--1--1--1--|
--1--1--1--1--1--1--1--1--1--1--1--1--1--|


  PM PM PM PM PM PM PM PM PM PM PM PM     
  S  S  S  S  E  S  S  S  S  S  S  E  E   
-----------------------------------------|
-----------------------------------------|
-----------------------------------------|
--------------------------------------4--|
--1--1--1--1--1--1--1--1--1--1--1--1--1--|
--1--1--1--1--1--1--1--1--1--1--1--1--2--|


  PM PM PM PM PM PM PM PM PM PM PM PM     
  S  S  S  S  E  S  S  S  S  S  S  E  E   
-----------------------------------------|
-----------------------------------------|
-----------------------------------------|
--------------------------------------3--|
--1--1--1--1--1--1--1--1--1--1--1--1--0--|
--1--1--1--1--1--1--1--1--1--1--1--1--1--|


  PM PM PM PM PM PM PM PM PM PM PM PM     
  S  S  S  S  E  S  S  S  S  S  S  E  E   
-----------------------------------------|
-----------------------------------------|
-----------------------------------------|
--------------------------------------4--|
--0--0--0--0--0--0--0--0--0--0--0--0--1--|
--0--0--0--0--0--0--0--0--0--0--0--0--2--|


  PM PM PM PM PM PM PM PM PM PM PM PM PM  
  S  S  S  S  E  S  S  S  S  S  S  E  E   
-----------------------------------------|
-----------------------------------------|
-----------------------------------------|
-----------------------------------------|
--1--1--1--1--1--1--1--1--1--1--1--1--1--|
--1--1--1--1--1--1--1--1--1--1--1--1--1--|


  PM PM PM PM PM PM PM PM PM PM PM PM     
  S  S  S  S  E  S  S  S  S  S  S  E  E   
-----------------------------------------|
-----------------------------------------|
-----------------------------------------|
--------------------------------------4--|
--1--1--1--1--1--1--1--1--1--1--1--1--1--|
--1--1--1--1--1--1--1--1--1--1--1--1--2--|


  PM PM PM PM PM PM PM PM PM PM PM PM     
  S  S  S  S  E  S  S  S  S  S  S  E  E   
-----------------------------------------|
-----------------------------------------|
-----------------------------------------|
--------------------------------------3--|
--1--1--1--1--1--1--1--1--1--1--1--1--0--|
--1--1--1--1--1--1--1--1--1--1--1--1--1--|


  PM PM PM PM PM PM PM PM PM PM PM PM     
  S  S  S  S  E  S  S  S  S  S  S  E  E   
-----------------------------------------|
-----------------------------------------|
-----------------------------------------|
--------------------------------------4--|
--0--0--0--0--0--0--0--0--0--0--0--0--1--|
--0--0--0--0--0--0--0--0--0--0--0--0--2--|


  PM PM PM PM PM PM PM PM PM PM PM PM PM  
  S  S  S  S  E  S  S  S  S  S  S  E  E   
-----------------------------------------|
-----------------------------------------|
-----------------------------------------|
-----------------------------------------|
--1--1--1--1--1--1--1--1--1--1--1--1--1--|
--1--1--1--1--1--1--1--1--1--1--1--1--1--|


  PM PM PM PM PM PM PM PM PM PM PM PM     
  S  S  S  S  E  S  S  S  S  S  S  E  E   
-----------------------------------------|
-----------------------------------------|
-----------------------------------------|
--------------------------------------4--|
--1--1--1--1--1--1--1--1--1--1--1--1--1--|
--1--1--1--1--1--1--1--1--1--1--1--1--2--|


  PM PM PM PM PM PM PM PM PM PM PM PM     
  S  S  S  S  E  S  S  S  S  S  S  E  E   
-----------------------------------------|
-----------------------------------------|
-----------------------------------------|
--------------------------------------3--|
--1--1--1--1--1--1--1--1--1--1--1--1--0--|
--1--1--1--1--1--1--1--1--1--1--1--1--1--|


  PM PM PM PM PM PM PM PM PM PM PM PM     
  S  S  S  S  E  S  S  S  S  S  S  E  E   
-----------------------------------------|
-----------------------------------------|
-----------------------------------------|
--------------------------------------4--|
--0--0--0--0--0--0--0--0--0--0--0--0--1--|
--0--0--0--0--0--0--0--0--0--0--0--0--2--|


  PM PM PM PM PM PM PM PM PM PM PM PM PM  
  S  S  S  S  E  S  S  S  S  S  S  E  E   
-----------------------------------------|
-----------------------------------------|
-----------------------------------------|
-----------------------------------------|
--1--1--1--1--1--1--1--1--1--1--1--1--1--|
--1--1--1--1--1--1--1--1--1--1--1--1--1--|


  PM PM PM PM PM PM PM PM PM PM PM PM     
  S  S  S  S  E  S  S  S  S  S  S  E  E   
-----------------------------------------|
-----------------------------------------|
-----------------------------------------|
--------------------------------------4--|
--1--1--1--1--1--1--1--1--1--1--1--1--1--|
--1--1--1--1--1--1--1--1--1--1--1--1--2--|


  PM PM PM PM PM PM PM PM PM PM PM PM     
  S  S  S  S  E  S  S  S  S  S  S  E  E   
-----------------------------------------|
-----------------------------------------|
-----------------------------------------|
--------------------------------------3--|
--1--1--1--1--1--1--1--1--1--1--1--1--0--|
--1--1--1--1--1--1--1--1--1--1--1--1--1--|


  PM PM PM PM PM PM PM PM PM PM PM PM     
  S  S  S  S  E  S  S  S  S  S  S  E  E   
-----------------------------------------|
-----------------------------------------|
-----------------------------------------|
--------------------------------------4--|
--0--0--0--0--0--0--0--0--0--0--0--0--1--|
--0--0--0--0--0--0--0--0--0--0--0--0--2--|


  PM PM PM PM PM PM PM PM PM PM PM PM PM  
  S  S  S  S  E  S  S  S  S  S  S  E  E   
-----------------------------------------|
-----------------------------------------|
-----------------------------------------|
-----------------------------------------|
--1--1--1--1--1--1--1--1--1--1--1--1--1--|
--1--1--1--1--1--1--1--1--1--1--1--1--1--|


  PM PM PM PM PM PM PM PM PM PM PM PM     
  S  S  S  S  E  S  S  S  S  S  S  E  E   
-----------------------------------------|
-----------------------------------------|
-----------------------------------------|
--------------------------------------4--|
--1--1--1--1--1--1--1--1--1--1--1--1--1--|
--1--1--1--1--1--1--1--1--1--1--1--1--2--|


  PM PM PM PM PM PM PM PM PM PM PM PM     
  S  S  S  S  E  S  S  S  S  S  S  E  E   
-----------------------------------------|
-----------------------------------------|
-----------------------------------------|
--------------------------------------3--|
--1--1--1--1--1--1--1--1--1--1--1--1--0--|
--1--1--1--1--1--1--1--1--1--1--1--1--1--|


                                            0.44                                
  PM PM PM PM PM PM PM PM PM PM PM PM                                           
  S  S  S  S  E  S  S  S  S  S  S  E  E     W                                   
-----------------------------------------|-------------------|-----|-----|-----|
-----------------------------------------|-------------------|-----|-----|-----|
-----------------------------------------|-------------------|-----|-----|-----|
--------------------------------------4--|-------------------|-----|-----|-----|
--0--0--0--0--0--0--0--0--0--0--0--0--1--|-------------------|-----|-----|-----|
--0--0--0--0--0--0--0--0--0--0--0--0--2--|-------------------|-----|-----|-----|


  0.51                                               
  PM   PM PM PM PM PM PM PM PM PM PM PM PM PM PM PM  
  S    S  S  S  S  S  S  S  S  S  S  S  S  S  S  S   
----------------------------------------------------|
----------------------------------------------------|
----------------------------------------------------|
----------------------------------------------------|
--3----3--0--0--8--8--0--0--8--8--0--0--7--7--2--2--|
----------------------------------------------------|


  PM PM PM PM PM PM PM PM PM PM PM PM PM PM PM PM  
  S  S  S  S  S  S  S  S  S  S  S  S  S  S  S  S   
--------------------------------------------------|
--------------------------------------------------|
--------------------------------------------------|
--------------------------------------------------|
--3--3--0--0--8--8--0--0--8--8--0--0--7--7--0--0--|
--------------------------------------------------|


  PM PM PM PM PM PM PM PM PM PM PM PM PM PM PM PM  
  S  S  S  S  S  S  S  S  S  S  S  S  S  S  S  S   
--------------------------------------------------|
--------------------------------------------------|
--------------------------------------------------|
--------------------------------------------------|
--3--3--0--0--8--8--0--0--8--8--0--0--7--7--2--2--|
--------------------------------------------------|


  PM PM PM PM PM PM PM PM PM PM PM PM PM PM PM PM  
  S  S  S  S  S  S  S  S  S  S  S  S  S  S  S  S   
--------------------------------------------------|
--------------------------------------------------|
--------------------------------------------------|
--------------------------------------------------|
--3--3--0--0--8--8--0--0--8--8--0--0--7--7--0--0--|
--------------------------------------------------|


  0.58                                       
  PM   PM PM PM PM PM PM PM                  
  S    S  S  S  S  S  S  S  S S S S S S S S  
--------------------------------------------|
--------------------------------------------|
--------------------------------------------|
----------------------------4-4-4-4-4-4-4-4-|
--1----1--1--1--1--1--1--1------------------|
--1----1--1--1--1--1--1--1------------------|


  PM PM PM PM PM PM PM PM                  
  S  S  S  S  S  S  S  S  S S S S S S S S  
------------------------------------------|
------------------------------------------|
------------------------------------------|
--------------------------3-3-3-3-3-3-3-3-|
--4--4--4--4--4--4--4--4------------------|
--4--4--4--4--4--4--4--4------------------|


  PM PM PM PM PM PM PM PM PM PM PM PM PM PM PM PM  
  S  S  S  S  S  S  S  S  S  S  S  S  S  S  S  S   
--------------------------------------------------|
--------------------------------------------------|
--------------------------------------------------|
--------------------------------------------------|
--3--3--0--0--8--8--0--0--7--7--0--0--3--3--2--2--|
--------------------------------------------------|


  PM PM PM PM PM PM PM PM PM PM PM PM PM PM PM PM  
  S  S  S  S  S  S  S  S  S  S  S  S  S  S  S  S   
--------------------------------------------------|
--------------------------------------------------|
--------------------------------------------------|
--------------------------------------------------|
--3--3--0--0--8--8--0--0--7--7--0--0--3--3--0--0--|
--------------------------------------------------|


  PM PM PM PM PM PM PM PM PM PM PM PM PM PM PM PM  
  S  S  S  S  S  S  S  S  S  S  S  S  S  S  S  S   
--------------------------------------------------|
--------------------------------------------------|
--------------------------------------------------|
--------------------------------------------------|
--3--3--0--0--8--8--0--0--7--7--0--0--3--3--2--2--|
--------------------------------------------------|


  PM PM PM PM PM PM PM PM PM PM PM PM PM PM PM PM  
  S  S  S  S  S  S  S  S  S  S  S  S  S  S  S  S   
--------------------------------------------------|
--------------------------------------------------|
--------------------------------------------------|
--------------------------------------------------|
--3--3--0--0--8--8--0--0--7--7--0--0--3--3--0--0--|
--------------------------------------------------|


  PM PM PM PM PM PM PM PM                  
  S  S  S  S  S  S  S  S  S S S S S S S S  
------------------------------------------|
------------------------------------------|
------------------------------------------|
--------------------------4-4-4-4-4-4-4-4-|
--1--1--1--1--1--1--1--1------------------|
--1--1--1--1--1--1--1--1------------------|


  PM PM PM PM PM PM PM PM                  
  S  S  S  S  S  S  S  S  S S S S S S S S  
------------------------------------------|
------------------------------------------|
------------------------------------------|
--------------------------3-3-3-3-3-3-3-3-|
--4--4--4--4--4--4--4--4------------------|
--4--4--4--4--4--4--4--4------------------|


  1.12                                       
  PM   PM PM PM PM PM PM PM                  
  S    S  S  S  S  S  S  S  S S S S S S S S  
--------------------------------------------|
--------------------------------------------|
--------------------------------------------|
----------------------------4-4-4-4-4-4-4-4-|
--1----1--1--1--1--1--1--1------------------|
--1----1--1--1--1--1--1--1------------------|


  PM PM PM PM PM PM PM PM                  
  S  S  S  S  S  S  S  S  S S S S S S S S  
------------------------------------------|
------------------------------------------|
------------------------------------------|
--------------------------3-3-3-3-3-3-3-3-|
--4--4--4--4--4--4--4--4------------------|
--4--4--4--4--4--4--4--4------------------|


  PM PM PM PM PM PM PM PM                  
  S  S  S  S  S  S  S  S  S S S S S S S S  
------------------------------------------|
------------------------------------------|
------------------------------------------|
--------------------------8-8-8-8-8-8-8-8-|
--8--8--8--8--8--8--8--8------------------|
--8--8--8--8--8--8--8--8------------------|


  PM PM PM PM PM PM PM PM                  
  S  S  S  S  S  S  S  S  S S S S S S S S  
------------------------------------------|
------------------------------------------|
------------------------------------------|
--------------------------4-4-4-4-3-3-3-3-|
--6--6--6--6--6--6--6--6------------------|
--6--6--6--6--6--6--6--6------------------|


  1.12                                       
  PM   PM PM PM PM PM PM PM                  
  S    S  S  S  S  S  S  S  S S S S S S S S  
--------------------------------------------|
--------------------------------------------|
--------------------------------------------|
----------------------------4-4-4-4-4-4-4-4-|
--1----1--1--1--1--1--1--1------------------|
--1----1--1--1--1--1--1--1------------------|


  PM PM PM PM PM PM PM PM                  
  S  S  S  S  S  S  S  S  S S S S S S S S  
------------------------------------------|
------------------------------------------|
------------------------------------------|
--------------------------3-3-3-3-3-3-3-3-|
--4--4--4--4--4--4--4--4------------------|
--4--4--4--4--4--4--4--4------------------|


  PM PM PM PM PM PM PM PM                  
  S  S  S  S  S  S  S  S  S S S S S S S S  
------------------------------------------|
------------------------------------------|
------------------------------------------|
--------------------------8-8-8-8-8-8-8-8-|
--8--8--8--8--8--8--8--8------------------|
--8--8--8--8--8--8--8--8------------------|


                                             0.44                          
  PM PM PM PM PM PM PM PM                                                  
  S  S  S  S  S  S  S  S  S S S S S S S S    W                             
------------------------------------------|-------------------|-----|-----|
------------------------------------------|-------------------|-----|-----|
------------------------------------------|-------------------|-----|-----|
--------------------------4-4-4-4-3-3-3-3-|-------------------|-----|-----|
--6--6--6--6--6--6--6--6------------------|-------------------|-----|-----|
--6--6--6--6--6--6--6--6------------------|-------------------|-----|-----|


        0.51                                               
        PM   PM PM PM PM PM PM PM PM PM PM PM PM PM PM PM  
        S    S  S  S  S  S  S  S  S  S  S  S  S  S  S  S   
-----|----------------------------------------------------|
-----|----------------------------------------------------|
-----|----------------------------------------------------|
-----|----------------------------------------------------|
-----|--3----3--0--0--8--8--0--0--8--8--0--0--7--7--2--2--|
-----|----------------------------------------------------|


  PM PM PM PM PM PM PM PM PM PM PM PM PM PM PM PM  
  S  S  S  S  S  S  S  S  S  S  S  S  S  S  S  S   
--------------------------------------------------|
--------------------------------------------------|
--------------------------------------------------|
--------------------------------------------------|
--3--3--0--0--8--8--0--0--8--8--0--0--7--7--0--0--|
--------------------------------------------------|


  PM PM PM PM PM PM PM PM PM PM PM PM PM PM PM PM  
  S  S  S  S  S  S  S  S  S  S  S  S  S  S  S  S   
--------------------------------------------------|
--------------------------------------------------|
--------------------------------------------------|
--------------------------------------------------|
--3--3--0--0--8--8--0--0--8--8--0--0--7--7--2--2--|
--------------------------------------------------|


  PM PM PM PM PM PM PM PM PM PM PM PM PM PM PM PM  
  S  S  S  S  S  S  S  S  S  S  S  S  S  S  S  S   
--------------------------------------------------|
--------------------------------------------------|
--------------------------------------------------|
--------------------------------------------------|
--3--3--0--0--8--8--0--0--8--8--0--0--7--7--0--0--|
--------------------------------------------------|


  0.58                                       
  PM   PM PM PM PM PM PM PM                  
  S    S  S  S  S  S  S  S  S S S S S S S S  
--------------------------------------------|
--------------------------------------------|
--------------------------------------------|
----------------------------4-4-4-4-4-4-4-4-|
--1----1--1--1--1--1--1--1------------------|
--1----1--1--1--1--1--1--1------------------|


  PM PM PM PM PM PM PM PM                  
  S  S  S  S  S  S  S  S  S S S S S S S S  
------------------------------------------|
------------------------------------------|
------------------------------------------|
--------------------------3-3-3-3-3-3-3-3-|
--4--4--4--4--4--4--4--4------------------|
--4--4--4--4--4--4--4--4------------------|


  PM PM PM PM PM PM PM PM PM PM PM PM PM PM PM PM  
  S  S  S  S  S  S  S  S  S  S  S  S  S  S  S  S   
--------------------------------------------------|
--------------------------------------------------|
--------------------------------------------------|
--------------------------------------------------|
--3--3--0--0--8--8--0--0--7--7--0--0--3--3--2--2--|
--------------------------------------------------|


  PM PM PM PM PM PM PM PM PM PM PM PM PM PM PM PM  
  S  S  S  S  S  S  S  S  S  S  S  S  S  S  S  S   
--------------------------------------------------|
--------------------------------------------------|
--------------------------------------------------|
--------------------------------------------------|
--3--3--0--0--8--8--0--0--7--7--0--0--3--3--0--0--|
--------------------------------------------------|


  PM PM PM PM PM PM PM PM PM PM PM PM PM PM PM PM  
  S  S  S  S  S  S  S  S  S  S  S  S  S  S  S  S   
--------------------------------------------------|
--------------------------------------------------|
--------------------------------------------------|
--------------------------------------------------|
--3--3--0--0--8--8--0--0--7--7--0--0--3--3--2--2--|
--------------------------------------------------|


  PM PM PM PM PM PM PM PM PM PM PM PM PM PM PM PM  
  S  S  S  S  S  S  S  S  S  S  S  S  S  S  S  S   
--------------------------------------------------|
--------------------------------------------------|
--------------------------------------------------|
--------------------------------------------------|
--3--3--0--0--8--8--0--0--7--7--0--0--3--3--0--0--|
--------------------------------------------------|


  PM PM PM PM PM PM PM PM                  
  S  S  S  S  S  S  S  S  S S S S S S S S  
------------------------------------------|
------------------------------------------|
------------------------------------------|
--------------------------4-4-4-4-4-4-4-4-|
--1--1--1--1--1--1--1--1------------------|
--1--1--1--1--1--1--1--1------------------|


  PM PM PM PM PM PM PM PM                  
  S  S  S  S  S  S  S  S  S S S S S S S S  
------------------------------------------|
------------------------------------------|
------------------------------------------|
--------------------------3-3-3-3-3-3-3-3-|
--4--4--4--4--4--4--4--4------------------|
--4--4--4--4--4--4--4--4------------------|


  1.12                                       
  PM   PM PM PM PM PM PM PM                  
  S    S  S  S  S  S  S  S  S S S S S S S S  
--------------------------------------------|
--------------------------------------------|
--------------------------------------------|
----------------------------4-4-4-4-4-4-4-4-|
--1----1--1--1--1--1--1--1------------------|
--1----1--1--1--1--1--1--1------------------|


  PM PM PM PM PM PM PM PM                  
  S  S  S  S  S  S  S  S  S S S S S S S S  
------------------------------------------|
------------------------------------------|
------------------------------------------|
--------------------------3-3-3-3-3-3-3-3-|
--4--4--4--4--4--4--4--4------------------|
--4--4--4--4--4--4--4--4------------------|


  PM PM PM PM PM PM PM PM                  
  S  S  S  S  S  S  S  S  S S S S S S S S  
------------------------------------------|
------------------------------------------|
------------------------------------------|
--------------------------8-8-8-8-8-8-8-8-|
--8--8--8--8--8--8--8--8------------------|
--8--8--8--8--8--8--8--8------------------|


  PM PM PM PM PM PM PM PM                  
  S  S  S  S  S  S  S  S  S S S S S S S S  
------------------------------------------|
------------------------------------------|
------------------------------------------|
--------------------------4-4-4-4-3-3-3-3-|
--6--6--6--6--6--6--6--6------------------|
--6--6--6--6--6--6--6--6------------------|


  1.12                                       
  PM   PM PM PM PM PM PM PM                  
  S    S  S  S  S  S  S  S  S S S S S S S S  
--------------------------------------------|
--------------------------------------------|
--------------------------------------------|
----------------------------4-4-4-4-4-4-4-4-|
--1----1--1--1--1--1--1--1------------------|
--1----1--1--1--1--1--1--1------------------|


  PM PM PM PM PM PM PM PM                  
  S  S  S  S  S  S  S  S  S S S S S S S S  
------------------------------------------|
------------------------------------------|
------------------------------------------|
--------------------------3-3-3-3-3-3-3-3-|
--4--4--4--4--4--4--4--4------------------|
--4--4--4--4--4--4--4--4------------------|


  PM PM PM PM PM PM PM PM                  
  S  S  S  S  S  S  S  S  S S S S S S S S  
------------------------------------------|
------------------------------------------|
------------------------------------------|
--------------------------8-8-8-8-8-8-8-8-|
--8--8--8--8--8--8--8--8------------------|
--8--8--8--8--8--8--8--8------------------|


  PM PM PM PM PM PM PM PM                  
  S  S  S  S  S  S  S  S  S S S S S S S S  
------------------------------------------|
------------------------------------------|
------------------------------------------|
--------------------------4-4-4-4-3-3-3-3-|
--6--6--6--6--6--6--6--6------------------|
--6--6--6--6--6--6--6--6------------------|


  2.09                                       
  PM   PM PM PM PM PM PM PM                  
  S    S  S  S  S  S  S  S  S S S S S S S S  
--------------------------------------------|
--------------------------------------------|
--------------------------------------------|
----------------------------4-4-4-4-4-4-4-4-|
--1----1--1--1--1--1--1--1------------------|
--1----1--1--1--1--1--1--1------------------|


  PM PM PM PM PM PM PM PM                  
  S  S  S  S  S  S  S  S  S S S S S S S S  
------------------------------------------|
------------------------------------------|
------------------------------------------|
--------------------------3-3-3-3-3-3-3-3-|
--4--4--4--4--4--4--4--4------------------|
--4--4--4--4--4--4--4--4------------------|


  PM PM PM PM PM PM PM PM                  
  S  S  S  S  S  S  S  S  S S S S S S S S  
------------------------------------------|
------------------------------------------|
------------------------------------------|
--------------------------8-8-8-8-8-8-8-8-|
--8--8--8--8--8--8--8--8------------------|
--8--8--8--8--8--8--8--8------------------|


  PM PM PM PM PM PM PM PM                  
  S  S  S  S  S  S  S  S  S S S S S S S S  
------------------------------------------|
------------------------------------------|
------------------------------------------|
--------------------------4-4-4-4-3-3-3-3-|
--6--6--6--6--6--6--6--6------------------|
--6--6--6--6--6--6--6--6------------------|


  2.09                                       
  PM   PM PM PM PM PM PM PM                  
  S    S  S  S  S  S  S  S  S S S S S S S S  
--------------------------------------------|
--------------------------------------------|
--------------------------------------------|
----------------------------4-4-4-4-4-4-4-4-|
--1----1--1--1--1--1--1--1------------------|
--1----1--1--1--1--1--1--1------------------|


  PM PM PM PM PM PM PM PM                  
  S  S  S  S  S  S  S  S  S S S S S S S S  
------------------------------------------|
------------------------------------------|
------------------------------------------|
--------------------------3-3-3-3-3-3-3-3-|
--4--4--4--4--4--4--4--4------------------|
--4--4--4--4--4--4--4--4------------------|


  PM PM PM PM PM PM PM PM                  
  S  S  S  S  S  S  S  S  S S S S S S S S  
------------------------------------------|
------------------------------------------|
------------------------------------------|
--------------------------8-8-8-8-8-8-8-8-|
--8--8--8--8--8--8--8--8------------------|
--8--8--8--8--8--8--8--8------------------|


                                             2.23              
  PM PM PM PM PM PM PM PM                                      
  S  S  S  S  S  S  S  S  S S S S S S S S    W                 
------------------------------------------|-------------------|
------------------------------------------|-------------------|
------------------------------------------|-------------------|
--------------------------4-4-4-4-3-3-3-3-|-------------------|
--6--6--6--6--6--6--6--6------------------|--1----------------|
--6--6--6--6--6--6--6--6------------------|--1----------------|


  W                   W                   W                 
-------------------|-------------------|-------------------|
-------------------|-------------------|-------------------|
-------------------|-------------------|-------------------|
-------------------|-------------------|-------------------|
--L----------------|--L----------------|--L----------------|
--L----------------|--L----------------|--L----------------|


  S S S S S S E  S S S S S S E     E  S S S S E  S S S S S S E   
--------------------------------|-------------------------------|
--------------------------------|-------------------------------|
--------------------------------|-------------------------------|
--------------------------------|-------------------------------|
--0-0-0-0-0-0-0--0-0-0-0-0-0-0--|--0--0-0-0-0-0--0-0-0-0-0-0-0--|
--1-1-1-1-1-1-1--1-1-1-1-1-1-1--|--1--1-1-1-1-1--1-1-1-1-1-1-1--|


  S S S S S S E  S S S S S S E     E  S S S S S S H         
--------------------------------|--------------------------|
--------------------------------|--------------------------|
--------------------------------|--------------------------|
--------------------------------|--------------------------|
--0-0-0-0-0-0-0--0-0-0-0-0-0-0--|--0--0-0-0-0-0------------|
--1-1-1-1-1-1-1--1-1-1-1-1-1-1--|--1--1-1-1-1-1------------|


  2.37                                                              
  S    S S S S S E  S S S S S S E     E  S S S S E  S S S S S S E   
-----------------------------------|-------------------------------|
-----------------------------------|-------------------------------|
-----------------------------------|-------------------------------|
-----------------------------------|-------------------------------|
--0----0-0-0-0-0-0--0-0-0-0-0-0-0--|--0--0-0-0-0-0--0-0-0-0-0-0-0--|
--1----1-1-1-1-1-1--1-1-1-1-1-1-1--|--1--1-1-1-1-1--1-1-1-1-1-1-1--|


  S S S S S S E  S S S S S S E     E  S S S S E  S S S S S S E   
--------------------------------|-------------------------------|
--------------------------------|-------------------------------|
--------------------------------|-------------------------------|
--------------------------------|-------------------------------|
--0-0-0-0-0-0-0--0-0-0-0-0-0-0--|--0--0-0-0-0-0--0-0-0-0-0-0-0--|
--1-1-1-1-1-1-1--1-1-1-1-1-1-1--|--1--1-1-1-1-1--1-1-1-1-1-1-1--|


  S S S S S S E  S S S S S S E     E  S S S S E  S S S S S S E   
--------------------------------|-------------------------------|
--------------------------------|-------------------------------|
--------------------------------|-------------------------------|
--------------------------------|-------------------------------|
--0-0-0-0-0-0-0--0-0-0-0-0-0-0--|--0--0-0-0-0-0--0-0-0-0-0-0-0--|
--1-1-1-1-1-1-1--1-1-1-1-1-1-1--|--1--1-1-1-1-1--1-1-1-1-1-1-1--|


  S S S S S S E  S S S S S S E     E  S S S S E  S S S S S S E   
--------------------------------|-------------------------------|
--------------------------------|-------------------------------|
--------------------------------|-------------------------------|
--------------------------------|-------------------------------|
--0-0-0-0-0-0-0--0-0-0-0-0-0-0--|--0--0-0-0-0-0--0-0-0-0-0-0-0--|
--1-1-1-1-1-1-1--1-1-1-1-1-1-1--|--1--1-1-1-1-1--1-1-1-1-1-1-1--|


  2.51                                                                  
  S    S S S S S S S S S S S S S S S    E  S S S S S S S S S S S S S S  
-------------------------------------|---------------------------------|
-------------------------------------|---------------------------------|
-------------------------------------|---------------------------------|
-------------------------------------|---------------------------------|
--0----0-0-0-0-0-0---0-0-0-0-0-0-0---|-----0-0-0-0-0---0-0-0-0-0-0-0---|
--1----1-1-1-1-1-1---1-1-1-1-1-1-1---|-----1-1-1-1-1---1-1-1-1-1-1-1---|


  S S S S S S S S S S S S S S S S    E  S S S S S S S S S S S S S S  
----------------------------------|---------------------------------|
----------------------------------|---------------------------------|
----------------------------------|---------------------------------|
----------------------------------|---------------------------------|
--0-0-0-0-0-0-0---0-0-0-0-0-0-0---|-----0-0-0-0-0---0-0-0-0-0-0-0---|
--1-1-1-1-1-1-1---1-1-1-1-1-1-1---|-----1-1-1-1-1---1-1-1-1-1-1-1---|


  S S S S S S S S S S S S S S S S    E  S S S S S S S S S S S S S S  
----------------------------------|---------------------------------|
----------------------------------|---------------------------------|
----------------------------------|---------------------------------|
----------------------------------|---------------------------------|
--0-0-0-0-0-0-0---0-0-0-0-0-0-0---|-----0-0-0-0-0---0-0-0-0-0-0-0---|
--1-1-1-1-1-1-1---1-1-1-1-1-1-1---|-----1-1-1-1-1---1-1-1-1-1-1-1---|


  S S S S S S S S S S S S S S S S    E  S S S S S S S S S S S S S S  
----------------------------------|---------------------------------|
----------------------------------|---------------------------------|
----------------------------------|---------------------------------|
----------------------------------|---------------------------------|
--0-0-0-0-0-0-0---0-0-0-0-0-0-0---|-----0-0-0-0-0---0-0-0-0-0-0-0---|
--1-1-1-1-1-1-1---1-1-1-1-1-1-1---|-----1-1-1-1-1---1-1-1-1-1-1-1---|


  3.06  (guitar 1)                                                   
  W                                                        
-------------------|----|----|----|-----------|-----------|
-------------------|----|----|----|-----------|-----------|
-------------------|----|----|----|-----------|-----------|
-------------------|----|----|----|-----------|-----------|
-------------------|----|----|----|-----------|-----------|
-------------------|----|----|----|-----------|-----------|


  E  E  E  E  E  E  E  E     E  E  E  E  E  E  E  E   
--------------------------|--------------------------|
--------------------------|--------------------------|
--------------------------|--------------------------|
--------------------------|--------------------------|
--8--8--8--8--8--8--8--8--|--6--6--6--6--6--6--6--6--|
--8--8--8--8--8--8--8--8--|--6--6--6--6--6--6--6--6--|


  3.06   (guitar 2)
  W
--------------------|---------------------|-----------------------|
--------------------|---------------------|-----------------/9----|
--------------------|---------------------|--10~------------------|
--8~----------------|--11~----------------|-----------------------|
--------------------|---------------------|-----------------------|
--------------------|---------------------|-----------------------|


  H         E   E   Q        W                     W                  
--------------------------|--------------------|---------------------|
--9~--------L-------------|--------------------|---------------------|
---------------11--10~----|--------------------|---------------------|
--------------------------|--8~----------------|--11~----------------|
--------------------------|--------------------|---------------------|
--------------------------|--------------------|---------------------|


   H.             Q       H         E   E   Q        W                  
-----------------------|--------------------------|--------------------|
-----------------/9----|--9~--------L-------------|--------------------|
--10~------------------|---------------11--10~----|--------------------|
-----------------------|--------------------------|--8~----------------|
-----------------------|--------------------------|--------------------|
-----------------------|--------------------------|--------------------|


  3.20   (guitar 1)                                     
  PM   PM PM PM PM PM PM PM                  
  S    S  S  S  S  S  S  S  S S S S S S S S  
--------------------------------------------|
--------------------------------------------|
--------------------------------------------|
----------------------------4-4-4-4-4-4-4-4-|
--1----1--1--1--1--1--1--1------------------|
--1----1--1--1--1--1--1--1------------------|


  PM PM PM PM PM PM PM PM                  
  S  S  S  S  S  S  S  S  S S S S S S S S  
------------------------------------------|
------------------------------------------|
------------------------------------------|
--------------------------3-3-3-3-3-3-3-3-|
--4--4--4--4--4--4--4--4------------------|
--4--4--4--4--4--4--4--4------------------|


  PM PM PM PM PM PM PM PM                  
  S  S  S  S  S  S  S  S  S S S S S S S S  
------------------------------------------|
------------------------------------------|
------------------------------------------|
--------------------------8-8-8-8-8-8-8-8-|
--8--8--8--8--8--8--8--8------------------|
--8--8--8--8--8--8--8--8------------------|


  PM PM PM PM PM PM PM PM                  
  S  S  S  S  S  S  S  S  S S S S S S S S  
------------------------------------------|
------------------------------------------|
------------------------------------------|
--------------------------4-4-4-4-3-3-3-3-|
--6--6--6--6--6--6--6--6------------------|
--6--6--6--6--6--6--6--6------------------|


  PM PM PM PM PM PM PM PM                  
  S  S  S  S  S  S  S  S  S S S S S S S S  
------------------------------------------|
------------------------------------------|
------------------------------------------|
--------------------------4-4-4-4-4-4-4-4-|
--1--1--1--1--1--1--1--1------------------|
--1--1--1--1--1--1--1--1------------------|


  PM PM PM PM PM PM PM PM                  
  S  S  S  S  S  S  S  S  S S S S S S S S  
------------------------------------------|
------------------------------------------|
------------------------------------------|
--------------------------3-3-3-3-3-3-3-3-|
--4--4--4--4--4--4--4--4------------------|
--4--4--4--4--4--4--4--4------------------|


  PM PM PM PM PM PM PM PM                  
  S  S  S  S  S  S  S  S  S S S S S S S S  
------------------------------------------|
------------------------------------------|
------------------------------------------|
--------------------------8-8-8-8-8-8-8-8-|
--8--8--8--8--8--8--8--8------------------|
--8--8--8--8--8--8--8--8------------------|


  PM PM PM PM PM PM PM PM                  
  S  S  S  S  S  S  S  S  S S S S S S S S  
------------------------------------------|
------------------------------------------|
------------------------------------------|
--------------------------4-4-4-4-3-3-3-3-|
--6--6--6--6--6--6--6--6------------------|
--6--6--6--6--6--6--6--6------------------|


  3.34                                       
  PM   PM PM PM PM PM PM PM                  
  S    S  S  S  S  S  S  S  S S S S S S S S  
--------------------------------------------|
--------------------------------------------|
--------------------------------------------|
----------------------------4-4-4-4-4-4-4-4-|
--1----1--1--1--1--1--1--1------------------|
--1----1--1--1--1--1--1--1------------------|


  PM PM PM PM PM PM PM PM                  
  S  S  S  S  S  S  S  S  S S S S S S S S  
------------------------------------------|
------------------------------------------|
------------------------------------------|
--------------------------3-3-3-3-3-3-3-3-|
--4--4--4--4--4--4--4--4------------------|
--4--4--4--4--4--4--4--4------------------|


  PM PM PM PM PM PM PM PM                  
  S  S  S  S  S  S  S  S  S S S S S S S S  
------------------------------------------|
------------------------------------------|
------------------------------------------|
--------------------------8-8-8-8-8-8-8-8-|
--8--8--8--8--8--8--8--8------------------|
--8--8--8--8--8--8--8--8------------------|


  PM PM PM PM PM PM PM PM                  
  S  S  S  S  S  S  S  S  S S S S S S S S  
------------------------------------------|
------------------------------------------|
------------------------------------------|
--------------------------4-4-4-4-3-3-3-3-|
--6--6--6--6--6--6--6--6------------------|
--6--6--6--6--6--6--6--6------------------|


  PM PM PM PM PM PM PM PM                  
  S  S  S  S  S  S  S  S  S S S S S S S S  
------------------------------------------|
------------------------------------------|
------------------------------------------|
--------------------------4-4-4-4-4-4-4-4-|
--1--1--1--1--1--1--1--1------------------|
--1--1--1--1--1--1--1--1------------------|


  PM PM PM PM PM PM PM PM                  
  S  S  S  S  S  S  S  S  S S S S S S S S  
------------------------------------------|
------------------------------------------|
------------------------------------------|
--------------------------3-3-3-3-3-3-3-3-|
--4--4--4--4--4--4--4--4------------------|
--4--4--4--4--4--4--4--4------------------|


  PM PM PM PM PM PM PM PM                  
  S  S  S  S  S  S  S  S  S S S S S S S S  
------------------------------------------|
------------------------------------------|
------------------------------------------|
--------------------------8-8-8-8-8-8-8-8-|
--8--8--8--8--8--8--8--8------------------|
--8--8--8--8--8--8--8--8------------------|


                                             3.48                              
  PM PM PM PM PM PM PM PM                                                      
  S  S  S  S  S  S  S  S  S S S S S S S S    S    S S S S S E  S S S S S S E   
------------------------------------------|-----------------------------------|
------------------------------------------|-----------------------------------|
------------------------------------------|-----------------------------------|
--------------------------4-4-4-4-3-3-3-3-|-----------------------------------|
--6--6--6--6--6--6--6--6------------------|--0----0-0-0-0-0-0--0-0-0-0-0-0-0--|
--6--6--6--6--6--6--6--6------------------|--1----1-1-1-1-1-1--1-1-1-1-1-1-1--|


  E  S S S S E  S S S S S S E     S S S S S S E  S S S S S S E   
-------------------------------|--------------------------------|
-------------------------------|--------------------------------|
-------------------------------|--------------------------------|
-------------------------------|--------------------------------|
--0--0-0-0-0-0--0-0-0-0-0-0-0--|--0-0-0-0-0-0-0--0-0-0-0-0-0-0--|
--1--1-1-1-1-1--1-1-1-1-1-1-1--|--1-1-1-1-1-1-1--1-1-1-1-1-1-1--|


  E  S S S S E  S S S S S S E     S S S S S S E  S S S S S S E   
-------------------------------|--------------------------------|
-------------------------------|--------------------------------|
-------------------------------|--------------------------------|
-------------------------------|--------------------------------|
--0--0-0-0-0-0--0-0-0-0-0-0-0--|--0-0-0-0-0-0-0--0-0-0-0-0-0-0--|
--1--1-1-1-1-1--1-1-1-1-1-1-1--|--1-1-1-1-1-1-1--1-1-1-1-1-1-1--|


  E  S S S S E  S S S S S S E     S S S S S S E  S S S S S S E   
-------------------------------|--------------------------------|
-------------------------------|--------------------------------|
-------------------------------|--------------------------------|
-------------------------------|--------------------------------|
--0--0-0-0-0-0--0-0-0-0-0-0-0--|--0-0-0-0-0-0-0--0-0-0-0-0-0-0--|
--1--1-1-1-1-1--1-1-1-1-1-1-1--|--1-1-1-1-1-1-1--1-1-1-1-1-1-1--|


  E  S S S S E  S S S S S S E    
-------------------------------||
-------------------------------||
-------------------------------||
-------------------------------||
--0--0-0-0-0-0--0-0-0-0-0-0-0--||
--1--1-1-1-1-1--1-1-1-1-1-1-1--||

END


Tablature Legend (duration)
---------------
W - whole
H - half
Q - quarter
E - 8th
S - 16th
T - 32nd
X - 64th
. - note dotted
|-n-|  - n-tuplets





Comments


Popular Impending Doom tabs & chords
When Waters Run Deep Bass Tabs
Age Of Antichrist Tabs
Anything Goes Tabs
Anything Goes 1 Tabs
Anything Goes Intro 1 Tabs
Love Has Risen Tabs
Mark Of The Faithful Intro Tabs
More Than Conquerors 1 Tabs
Revival America Tabs
When I Speak Tabs


Song lyrics



↑ Back to top | Tablatures and chords are parodies/interpretations of the original songs. You may use it for private study, scholarship, research or language learning purposes only
© 2014 AZChords.com Contact us | Privacy policy | DMCA | Add/correct tabs | Request tabs | Top 50 tabs