» » »

Impending Doom, Anything Goes Tabs (ver.3)

Artists:  A B C D E F G H I J K L M N O P Q R S T U V W X Y Z # 

Anything Goes Tabs (ver.3)

Impending Doom Tabs
Rating:
4/5 (1 vote)
Anything Goes lessons Tabs too difficult? Try these video lessons and learn fast
                Drop A\ 7-string (A,E,A,D,G,B,e)

This is pretty easy and lots of fun if you like death metal and this is 99% correct! 
play along with the song

Intro
Reverb, Delay, Tremolo Effects

|-----------------|
|--9~-8~-12~-11~--|
|-----------------|
|-----------------|
|-----------------|
|-----------------|
|-----------------|

Intro Breakdown: while into is playing

|--------------------------------|
|--------------------------------|
|--------------------------------|
|--------------------------------|
|--------------------------------|
|--------------------------------|
|-1111-1-111-1-1111--------------|

Transition

|-----------------|
|-----------------|
|-----------------|
|-----------------|
|-----------------|
|-----------------|
|-5-555-5-5555----|

Breakdown
Dont know if i tabbed the rhythm to the breakdown right you may have to figure it out yourself

|--------------------------------------|
|--------------------------------------|
|--------------------------------------|
|--------------------------------------|
|--------------------------------------|
|-0-0-000-0-000-0-000-0-000-0000000----|
|-0-0-000-0-000-0-000-0-000-0000000----|
  . . ... . ... . ... . ... .......
Tremolo Riff

Guitar I
|-------------------------------------|
|-------------------------------------|
|-------------------------------------|
|-------------------------------------|
|-------------------------------------|
|-0-1111-0-1-3-0000-0-1111-0-1-3-4-3--|
|-0------0-1-3------0------0-1-3-4-3--|
  .      . . .      .      . . . . .

Guitar II

|-------------------------------------|
|-------------------------------------|
|-------------------------------------|
|-------------------------------------|
|-------------------------------------|
|-0-6666-0-1-3-5555-0-6666-0-1-3-4-3--|
|-0------0-1-3------0------0-1-3-4-3--|
  .      . . .      .      . . . . .

Rhythm to the beginning of the riff

|---------------------------------------------|
|---------------------------------------------|
|---------------------------------------------|
|---------------------------------------------|
|---------------------------------------------|
|---------------------------------------------|
|-0------0-1-3-------0-----0-1-3-4-3----------|
  .      . . .       .     . . . . .

Fast Riff

|---------------------------------------------|
|---------------------------------------------|
|---------------------------------------------|
|---------------------------------------------|
|---------------------------------------------|
|-----111-2-----444-2-----111-2-----444-2-----|
|-0-0-------0-0-------0-0-------0-0-----------|
  . .       . .       . .       . .

|---------------------------------------------|
|---------------------------------------------|
|---------------------------------------------|
|---------------------------------------------|
|---------------------------------------------|
|-----111-2-----111-2-----444-2---------------|
|-0-0-------0-0-------0-0---------------------|
  . .       . .       . .

|-------------------------------------------------|
|-------------------------------------------------|
|-------------------------------------------------|
|------3--------4------4-6-3--------4------4-6-3--|
|-------------------------------------------------|
|-1010-1-101010-2-1010-2-4-1-101010-2-1010-2-4-1--|
|-1010---101010---1010-------101010---1010--------|
  ....   ......   ....       ......   ....


|-------------------------------------------|
|-------------------------------------------|
|-------------------------------------------|
|------------4------------------------------|
|--------------------3-----4----------------|
|-1/7-101010-2---1-0-3-1-0-4----------------|
|-----101010-----1-0-3-1-0-4----------------|
      ......   . .   . .

second time

|---------------------------------------------|
|---------------------------------------------|
|---------------------------------------------|
|---------------------------------------------|
|---------------------------------------------|
|-----111-2-----444-2-------------------------|
|-0-0-------0-0-------------------------------|
  . .       . .


|---------------------------------------------|
|---------------------------------------------|
|---------------------------------------------|
|---------------------------------------------|
|---------------------------------------------|
|-1--1-11-2-2-2-4-1-1-11-2-2-2-4-1------------|
|---------------------------------------------|

Breakdown behind riff

|---------------------------------------------|
|---------------------------------------------|
|---------------------------------------------|
|---------------------------------------------|
|---------------------------------------------|
|---------------------------------------------|
|-111-1111111111111-111-222-2222222222222-22--|
  ... ............. ... ... ............. ..


|---------------------------------------------|
|---------------------------------------------|
|---------------------------------------------|
|---------------------------------------------|
|---------------------------------------------|
|---------------------------------------------|
|-111---------------111-----------------------|
  ...               ...

|---------------------------------------------|
|---------------------------------------------|
|---------------------------------------------|
|---------------------------------------------|
|---------------------------------------------|
|---------------------------------------------|
|-111-1111111111111-111-----------------------|
  ... ............. ...

Play the same rhythm on the first fret then play it open when it goes lower and stop 
out

|-------------------------------------|
|-------------------------------------|
|-------------------------------------|
|-------------------------------------|
|-------------------------------------|
|---1111-------0000---1111------------|
|-0------0-1-3------0------0-1-3-4-3--|
  .      . . .      .      . . . . .

|-------------------------------------|
|-------------------------------------|
|-------------------------------------|
|-------------------------------------|
|-1-----------------------------------| ring out
|-1-----------------------------------|
|-1-----------------------------------|

Play not palm muted to start then palm it and use a power chord...

|--------------------------------|
|--------------------------------|
|--------------------------------|
|--------------------------------|
|--------------------------------|
|-0000-0-000-0-0000--------------|
|-1111-1-111-1-1111--------------|


|-----------------|
|--9~-8~-12~-11~--|
|-----------------|
|-----------------|
|-----------------|
|-----------------|
|-----------------|
            
Submit corrections

comments powered by Disqus
↑ Back to top | Impending Doom Tabs for Anything Goes. Lyrics for acoustic guitar and electric guitar. Tablatures and chords are parodies/interpretations of the original songs. You may use it for private study, scholarship, research or language learning purposes only