» » »

Impaled Nazarene, Via Dolorosa Tabs (ver.1)

Artists:  A B C D E F G H I J K L M N O P Q R S T U V W X Y Z # 

Via Dolorosa Tabs (ver.1)

Impaled Nazarene Tabs
Rating:
0/5 (0 votes)
Via Dolorosa lessons Tabs too difficult? Try these video lessons and learn fast
                Impaled Nazarene - Via Dolorosa


Riff 1
E----------|----------------------|
B----------|----------------------|
G-2--------|----------------------|
D----4-2-0-|-4-------2--4---------|
A----------|-2--2222-0--2--2-2222-|
E----------|----------------------|
p.m             ....         ....

Riff 2
E--------------------------------------------------------------------------|
B--------------------------------------------------------------------------|
G--------------------------------------------------------------------------|
D-4----------------------------------------4-4444-4-2-----4-------2-4------|
A-2-222222-2--5--4--2--4------2--4--------------------5-4-2--2222-0-2-2222-|
E----------------------2-2222-0--2--222222---------------------------------|
p.m ......               ....       ......   ....            ....     ....

Riff 3
E----------------------------------------------|
B----------------------------------------------|
G----------------------------------------------|
D-----4---2---4-------4---2------2------2------|
A-5---2---0---2---5---2---0-0000-0-0000-0-0000-|
E-3---------------3----------------------------|
                            ....   ....   ....
Riff 4
E-------------------|----------------------------------------------------------|
B-------------------|----------------------------------------------------------|
G-------------------|----------------------------------------------------------|
D-4-----4-----4-----|-4------4------4------4-----------------------------------|
A-2--22-2--22-2--22-|-2-2222-2-2222-2-2222-2-2222--4------4------4------4------|
E-------------------|------------------------------2-2222-2-2222-2-2222-2-2222-|
     ..    ..    ..     ....   ....   ....   ....    ....   ....   ....   ....
-----------------------------------------------|----------------------|
-----------------------------------------------|----------------------|
-----------------------------------------------|----------------------|
-2------2------2------2------4------2--4-------|-2--4-----------------|
-0-0000-0-0000-0-0000-0-0000-2-2222-0--2-2222--|-0--2--4--2--4--2--4--|
-----------------------------------------------|-------2--0--2--0--2--|
   ....   ....   ....   ....   ....      ....   second ending

Riff 5
E-------------------------------------------------------------|
B-------------------------------------------------------------|
G-------------------------------------------------------------|
D-------------------------------------------------------------|
A-2--2--2-5-4p5-4-2-------------------------2p4-0-2--2--0--2--|
E--------------------2--2--2--2-4-5--5--5-5-------------------|

--------------------------------------------------------|
--------------------------------------------------------|
--------------------------------------------------------|
--------------------------------------------------------|
-2--2--2-5-4p5-4-2--------------------2-----------------|
-------------------2--2--2--2-4-5-4p5---5p2-0--2--0-2---|
            
Submit corrections

comments powered by Disqus
↑ Back to top | Impaled Nazarene Tabs for Via Dolorosa. Lyrics for acoustic guitar and electric guitar. Tablatures and chords are parodies/interpretations of the original songs. You may use it for private study, scholarship, research or language learning purposes only