>
 >
Burst Command Til War

Burst Command Til War Guitar Tabs

Impaled Nazarene - Burst Command Til War chords, tabs, tablatures, lyrics

Guitar lessons | Add/correct | Request | Top 50 tabs Artists:  A B C D E F G H I J K L M N O P Q R S T U V W X Y Z 0-9

Burst Command Til War Guitar Tabs – Impaled Nazarene

CD, Sheet music, Poster

Do you like Burst Command Til War? Share with your friends now
Tabs
Band:  Impaled Nazarene

Copyright (c) (1999)
Version 1.0 - (03/10/05)



.  - palm mute           /  - slide up to
\  - slide down to       ~  - vibrato
h  - hammer on           b  - Bend
p  - pull off            Suffixes for bend
t  - tap                 f  - full bend    h - half bend
ph - pinched harmonic    q  - quarter bend t - tap bend
*  - see comment         ^  - Hold bend    r release bend
x  - Stuccatto           ~  - vibrato bend
,  - slight palm mute    () - ghost note, sustained note
"  - tremolo note        <> - Trill

Tunning E A D G B E
 

 Intro / Main Riff


E--------------------------------|
B--------------------------------|
G-------------0---------------0--|
D-44444/5-444-0-2-44444/5-444-0--|
A-22222/3-222---0-22222/3-222----|
E-------------3------------------|

  Guitar 1
E--------------------------------|
B--------------------------------|
G-------------0---------------0--|
D-44444/5-444-0-2-44444/5-444-0--|
A-22222/3-222---0-22222/3-222----|
E-------------3------------------|
 Guitar 2
E--------------------------------|
B--------------------------------|
G--------------------------------|
D-------5---------------5--------|
A-------3-----5/7-------3-----5--|
E-------------3/5-------------3--|

 Rpt Main Riff 2 X

 Verse

E-------------------------------------------------------------------------|
B-------------------------------------------------------------------------|
G------------------------------------------------0000000000000000---(0)---|
D-44444444444444-222222222222222-444444444444444-0000000000000000---(0)---|
A-22222222222222-000000000000000-222222222222222--------------------------|
E------------------------------------------------3333333333333333---(3)---|

 Rpt Main Riff 2 X
 Rpt Verse
 Rpt Main Riff 4 X
 Rpt Verse
 Rpt Main Riff 5 X
 
E-------------------------------------|
B-------------------------------------|
G-------------0---------------0--(0)--|
D-44444/5-444-0-2-44444/5-444-0--(0)--|
A-22222/3-222---0-22222/3-222---------|
E-------------3---------------3--(3)--|

 Rpt Main Riff 5 X

E-------------------------------------------|
B-------------------------------------------|
G-------------0---------------0-----(0)-----|
D-44444/5-444-0-2-44444/5-444-0-----(0)-----|
A-22222/3-222---0-22222/3-222---------------|
E-------------3---------------3-----(3)-----|

 Ending.  Very loose ad-lib rock and roll ending.

E--------------------------------------------------------------------|
B--------------------------------------------------------------------|
G--------------------------------------------------------------------|
D-44444444444444444444444444444444444444444444444-4--4--4--4---4---4-|
A-22222222222222222222222222222222222222222222222-2--2--2--2---2---2-|
E--------------------------------------------------------------------|

E--------------------------------------------------------------------|
B--------------------------------------------------------------------|
G--------------------------------------------------------------------|
D-22222222222222222222222222222222222222222222222-2--2--2--2---2---2-|
A-00000000000000000000000000000000000000000000000-0--0--0--0---0---0-|
E--------------------------------------------------------------------|

E--------------------------------------------------------------------|
B--------------------------------------------------------------------|
G--------------------------------------------------------------------|
D-66666666666666666666666666666666666666666666666-4--4--4--4---4---4-|
A-44444444444444444444444444444444444444444444444-6--6--6--6---6---6-|
E--------------------------------------------------------------------|

E-------------------------------------------------------------------|
B-------------------------------------------------------------------|
G-------------------------------------------------------------------|
D-6------------------------(6)--------------------------------------|
A-4------------------------(4)--------------------------------------|
E-------------------------------------------------------------------|



END





Comments


Popular Impaled Nazarene tabs & chords
Armageddon Death Squad Bass Tabs
6th Degree Mindfuck Tabs
Armageddon Death Squad 1 Tabs
Cogito Ergo Sum Tabs
Coraxo Tabs
Endless War Tabs
Hardboiled And Still Hellbound Tabs
Nothing Is Sacred Tabs
Total War - Winter War Tabs
Vitutation Tabs


Song lyrics



↑ Back to top | Tablatures and chords are parodies/interpretations of the original songs. You may use it for private study, scholarship, research or language learning purposes only
© 2014 AZChords.com Contact us | Privacy policy | DMCA | Add/correct tabs | Request tabs | Top 50 tabs