» » »

Blood Is Thicker Than Water Tabs (ver.1)

Artists:  A B C D E F G H I J K L M N O P Q R S T U V W X Y Z # 

Blood Is Thicker Than Water Tabs (ver.1)

Impaled Nazarene
Rating:
0/5 (0 votes)

Hard to play? Try these video lessons and learn fast.
                Impaled Nazarene - Blood is Thicker than Water
Transcripted by Wade Lee

Standard E Tuning

This is a simple but nice black metal song..=)
Got nothing better to do so I've tabbed it out..

Intro
|------------------------------|
|------------------------------|
|------------------------------|
|------------------------------|
|-2-2-2-2-2.-2-2-2~-2.-2-2-2-2-|
|-0-0-0-0-0.-0-0-0~-0.-0-0-0-0-|

Main
|---------------------------------|
|---------------------------------|
|---------------------------------|
|---------5-5-5-5-----4-4---------|
|-2-2-2-5-3-3-3-3-5-5-2-2-2-2-2-2-|
|-0-0-0-3---------3-3-----0-0-0-0-|

Flow
|-------------------------|
|-------------------------|
|-------------------------|
|-----/9-9-9-\7-7-7-\5-\4-|
|-2-2-/7-7-7-\5-5-5-\3-\2-|
|-0-0---------------------|

Melody
|-----------------|-------------------|
|-----------------|-------------------|
|-----------------|-------------------|
|-2-2-2-----------|-------------------|
|-0-0-0-3-5-5-2-2-|-2-2-2-------------|
|-----------------|-0-0-0-2-3-3-2-2h3-|
|                 |                   |
|-----------------|-------------------|
|-----------------|-------------------|
|-----------------|-------------------|
|-7"-10"-12"-\9"--|-------------------|
|-----------------|-7"-9"-10"-9"10"---|
|-----------------|-------------------|

Decending (Writing down the notes only)
|--------------|--------|
|--------------|--------|
|--------------|--Same--|
|--------------|Pattern-|
|-/7-7-7~-7-77-|-9-10-6-|
|--------------|--------|

[Arrangement]
Intro x1
Main x4
(Pause) High-hat x8 with tempo
Flow x4
Main x2
Flow x8
Melody x4
Main x4
Flow x8
Intro x1
Decending x4
Melody x8
Main x4
(Ending) Last 3 notes x3
            
Hard to play? Try these video lessons and learn fast. | Correct




comments powered by Disqus
↑ Back to top | Tablatures and chords are parodies/interpretations of the original songs. You may use it for private study, scholarship, research or language learning purposes only