» » »

Impaled Nazarene, Assault The Weak Tabs (ver.1)

Artists:  A B C D E F G H I J K L M N O P Q R S T U V W X Y Z # 

Assault The Weak Tabs (ver.1)

Impaled Nazarene Tabs
Rating:
0/5 (0 votes)
Assault The Weak lessons Tabs too difficult? Try these video lessons and learn fast
                

I've done my best with spacing the rythm, but there may be some mistakes.
If You feel that something is incorrect, let me know.

Intro, tremolo picking
e|----------------|---------------|---------------|----------------|
B|----------------|---------------|---------------|----------------|
G|----------------|---------------|---------------|----------------|
D|----------------|---------------|---------------|----------------|
A|-0-0-0-0-0-0-0-0|0-0-0-0-0-0-0-0|0-0-0-0-0-0-0-0|0-0-0-0-2-2-5-5-|
E|----------------|---------------|---------------|--------0-0-3-3-|

Riff 1, tremolo picking
e|----------------|---------------|---------------|----------------|
B|----------------|---------------|---------------|----------------|
G|----------------|---------------|---------------|----------------|
D|-2-2-2-2-2-2-5-5|4-4-5-4-2-2----|2-2-2-2-2-2-2-2|2-2-2-2---------|
A|-0-0-0-0-0-0-3-3|2-2-3-2-0-0-5-5|0-0-0-0-0-0-0-0|0-0-0-0-2-2-5-5-|
E|----------------|------------3-3|---------------|--------0-0-3-3-|

e|----------------|---------------|---------------|----------------|
B|----------------|---------------|---------------|----------------|
G|----------------|---------------|---------------|----------------|
D|-2-2-2-2-2-2-5-5|4-4-5-4-2-2----|2-2-2-2-2-2-2-2|2-2-2-2---------|
A|-0-0-0-0-0-0-3-3|2-2-3-2-0-0-5-5|0-0-0-0-0-0-0-0|0-0-0-0-2-2-5-5-|
E|----------------|------------3-3|---------------|--------0-0-3-3-|

e|----------------|---------------|---------------|----------------|
B|----------------|---------------|---------------|----------------|
G|----------------|---------------|---------------|----------------|
D|-2-2-2-2-2-2-5-5|4-4-5-4-2-2----|2-2-2-2-2-2-2-2|2-2-2-2---------|
A|-0-0-0-0-0-0-3-3|2-2-3-2-0-0-5-5|0-0-0-0-0-0-0-0|0-0-0-0-2-2-5-5-|
E|----------------|------------3-3|---------------|--------0-0-3-3-|

e|----------------|---------------|---------------|----------------|
B|----------------|---------------|---------------|----------------|
G|----------------|---------------|---------------|----------------|
D|-2-2-2-2-2-2-5-5|4-4-5-4-2-2----|2-2-2-2-2-2-2-2|2-2-2-2-2-------|
A|-0-0-0-0-0-0-3-3|2-2-3-2-0-0-5-5|0-0-0-0-0-0-0-0|0-0-0-0-0-------|
E|----------------|------------3-3|---------------|----------------|

Riff 2, tremolo picking,
e|----------------|---------------|---------------|----------------|
B|----------------|---------------|---------------|----------------|
G|----------------|---------------|---------------|----------------|
D|-14-------------|---------------|9--------------|----------------|
A|-12-------------|---------------|7--------------|----------------|
E|----------------|---------------|---------------|----------------|

e|----------------|---------------|---------------|----------------|
B|----------------|---------------|---------------|----------------|
G|----------------|---------------|---------------|----------------|
D|-12-------------|--------9---12-|14-------------|----------------|
A|-10-------------|--------7---10-|12-------------|----------------|
E|----------------|---------------|---------------|----------------|

Riff 1
e|----------------|---------------|---------------|----------------|
B|----------------|---------------|---------------|----------------|
G|----------------|---------------|---------------|----------------|
D|-2-2-2-2-2-2-5-5|4-4-5-4-2-2----|2-2-2-2-2-2-2-2|2-2-2-2---------|
A|-0-0-0-0-0-0-3-3|2-2-3-2-0-0-5-5|0-0-0-0-0-0-0-0|0-0-0-0-2-2-5-5-|
E|----------------|------------3-3|---------------|--------0-0-3-3-|

e|----------------|---------------|---------------|----------------|
B|----------------|---------------|---------------|----------------|
G|----------------|---------------|---------------|----------------|
D|-2-2-2-2-2-2-5-5|4-4-5-4-2-2----|2-2-2-2-2-2-2-2|2-2-2-2---------|
A|-0-0-0-0-0-0-3-3|2-2-3-2-0-0-5-5|0-0-0-0-0-0-0-0|0-0-0-0-2-2-5-5-|
E|----------------|------------3-3|---------------|--------0-0-3-3-|

e|----------------|---------------|---------------|----------------|
B|----------------|---------------|---------------|----------------|
G|----------------|---------------|---------------|----------------|
D|-2-2-2-2-2-2-5-5|4-4-5-4-2-2----|2-2-2-2-2-2-2-2|2-2-2-2---------|
A|-0-0-0-0-0-0-3-3|2-2-3-2-0-0-5-5|0-0-0-0-0-0-0-0|0-0-0-0-2-2-5-5-|
E|----------------|------------3-3|---------------|--------0-0-3-3-|

e|----------------|---------------|---------------|----------------|
B|----------------|---------------|---------------|----------------|
G|----------------|---------------|---------------|----------------|
D|-2-2-2-2-2-2-5-5|4-4-5-4-2-2----|2-2-2-2-2-2-2-2|2-2-2-2-2-------|
A|-0-0-0-0-0-0-3-3|2-2-3-2-0-0-5-5|0-0-0-0-0-0-0-0|0-0-0-0-0-------|
E|----------------|------------3-3|---------------|----------------|

Riff 2, tremolo picking, high e notes are played by the second guitar
also with tremolo picking, during the second time,
e|-12-------------|--------10--12-|12-------------|-------------14-|
B|----------------|---------------|---------------|----------------|
G|----------------|---------------|---------------|----------------|
D|-14-------------|---------------|9--------------|----------------|
A|-12-------------|---------------|7--------------|----------------|
E|----------------|---------------|---------------|----------------|

e|-15-------------|--------12--15-|17-------------|----------------|
B|----------------|---------------|---------------|----------------|
G|----------------|---------------|---------------|----------------|
D|-12-------------|--------9---12-|14-------------|----------------|
A|-10-------------|--------7---10-|12-------------|----------------|
E|----------------|---------------|---------------|----------------|

Riff 3, tremolo picking,
e|----------------|---------------|---------------|----------------|
B|----------------|---------------|---------------|----------------|
G|----------------|---------------|---------------|----------------|
D|----------------|4--------------|7-----------5-4|2---------------|
A|-3--------------|2--------------|5-----------3-2|0---------------|
E|-1--------------|---------------|---------------|----------------|

e|----------------|---------------|---------------|----------------|
B|----------------|---------------|---------------|----------------|
G|----------------|---------------|---------------|----------------|
D|----------------|4--------------|7-----------5-4|2---------------|
A|-3--------------|2--------------|5-----------3-2|0---------------|
E|-1--------------|---------------|---------------|----------------|

e|----------------|
B|----------------|
G|----------------|
D|-2--------------|
A|-0-------2---5--|
E|---------0---3--|

Riff 1, second guitar is playing some figure witch I can't tab 100Dorrectly
e|-0---3---5------|----8---7---8-7|5---3---5------|----------------|
B|----------------|---------------|---------------|----------------|
G|----------------|---------------|---------------|----------------|
D|-2-2-2-2-2-2-5-5|4-4-5-4-2-2----|2-2-2-2-2-2-2-2|2-2-2-2---------|
A|-0-0-0-0-0-0-3-3|2-2-3-2-0-0-5-5|0-0-0-0-0-0-0-0|0-0-0-0-2-2-5-5-|
E|----------------|------------3-3|---------------|--------0-0-3-3-|

e|-12--15--17-----|----20-19---201917--15--17-----|----------------|
B|----------------|---------------|---------------|----------------|
G|----------------|---------------|---------------|----------------|
D|-2-2-2-2-2-2-5-5|4-4-5-4-2-2----|2-2-2-2-2-2-2-2|2-2-2-2---------|
A|-0-0-0-0-0-0-3-3|2-2-3-2-0-0-5-5|0-0-0-0-0-0-0-0|0-0-0-0-2-2-5-5-|
E|----------------|------------3-3|---------------|--------0-0-3-3-|

e|?---------------|---------------|---------------|----------------|
B|----------------|---------------|---------------|----------------|
G|----------------|---------------|---------------|----------------|
D|-2-2-2-2-2-2-5-5|4-4-5-4-2-2----|2-2-2-2-2-2-2-2|2-2-2-2---------|
A|-0-0-0-0-0-0-3-3|2-2-3-2-0-0-5-5|0-0-0-0-0-0-0-0|0-0-0-0-2-2-5-5-|
E|----------------|------------3-3|---------------|--------0-0-3-3-|

e|?---------------|---------------|---------------|----------------|
B|----------------|---------------|---------------|----------------|
G|----------------|---------------|---------------|----------------|
D|-2-2-2-2-2-2-5-5|4-4-5-4-2-2----|2-2-2-2-2-2-2-2|2-2-2-2-2-------|
A|-0-0-0-0-0-0-3-3|2-2-3-2-0-0-5-5|0-0-0-0-0-0-0-0|0-0-0-0-0-------|
E|----------------|------------3-3|---------------|----------------|

Riff 2, tremolo picking, high e notes are played by the second guitar
also with tremolo picking, during the second time,
e|-12-------------|--------10--12-|12-------------|-------------14-|
B|----------------|---------------|---------------|----------------|
G|----------------|---------------|---------------|----------------|
D|-14-------------|---------------|9--------------|----------------|
A|-12-------------|---------------|7--------------|----------------|
E|----------------|---------------|---------------|----------------|

e|-15-------------|--------12--15-|17-------------|----------------|
B|----------------|---------------|---------------|----------------|
G|----------------|---------------|---------------|----------------|
D|-12-------------|--------9---12-|14-------------|----------------|
A|-10-------------|--------7---10-|12-------------|----------------|
E|----------------|---------------|---------------|----------------|

Riff 3, tremolo picking,
e|----------------|---------------|---------------|----------------|
B|----------------|---------------|---------------|----------------|
G|----------------|---------------|---------------|----------------|
D|----------------|4--------------|7-----------5-4|2---------------|
A|-3--------------|2--------------|5-----------3-2|0---------------|
E|-1--------------|---------------|---------------|----------------|

e|----------------|---------------|---------------|----------------|
B|----------------|---------------|---------------|----------------|
G|----------------|---------------|---------------|----------------|
D|----------------|4--------------|7-----------5-4|2---------------|
A|-3--------------|2--------------|5-----------3-2|0---------------|
E|-1--------------|---------------|---------------|----------------|

e|----------------|---------------|---------------|----------------|
B|----------------|---------------|---------------|----------------|
G|----------------|---------------|---------------|----------------|
D|-2-------5-4----|2--------------|2-------7-5-4--|2---------------|
A|-0-------3-2-5--|0--------------|0-------5-3-2--|0---------------|
E|-------------3--|---------------|---------------|----------------|

e|----------------|---------------|---------------|----------------|
B|----------------|---------------|---------------|----------------|
G|----------------|---------------|---------------|----------------|
D|-2-------5-4----|2--------------|2-------7-5-4--|----2-----------|
A|-0-------3-2-5--|0--------------|0-------5-3-2--|5---0-----------|
E|-------------3--|---------------|---------------|3---------------|
            
Submit corrections

comments powered by Disqus
↑ Back to top | Impaled Nazarene Tabs for Assault The Weak. Lyrics for acoustic guitar and electric guitar. Tablatures and chords are parodies/interpretations of the original songs. You may use it for private study, scholarship, research or language learning purposes only