» » »

Impaled Nazarene, 6th Degree Mindfuck Tabs (ver.1)

Artists:  A B C D E F G H I J K L M N O P Q R S T U V W X Y Z # 

6th Degree Mindfuck Tabs (ver.1)

Impaled Nazarene Tabs
 Rating:
4/5 (4 votes)
6th Degree Mindfuck lessons Tabs too difficult? Try these video lessons and learn fast
1
                IMPALED NAZARENE - 6th Degree Mindf**k "Version 1.0"
All corrections and comments welcome

This one is all done,tell me if their's any errors.

p-Palm mute          v-Vibrato
...-Play many times
/-Slide

This Song Takes One Guitar Downtuned 1 Step
00:00-00:35 RIFFA
|------------------------------------------------------|
|------------------------------------------------------|
|------------------------------------------------------|
|------------------------------------------------------|
|-9-8-6-8-5--5...-6-8--5-5...--9-8-6-8--5-5...-6-8--5--|
|-7-6-4-6-3--3...-4-6--3-3...--7-6-4-6--3-3...-4-6--3--|
|
|-------------------------------|-----|
|-------------------------------|-----|
|-------------------------------|-----|
|-------------------------------|-----|
|-5...--5p-5p-5p-5p-5p-5p--6-8--|-5p--|
|-3...--3p-3p-3p-3p-3p-3p--4-6--|-3p--|

00:35-01:01 RIFFB
|-----------------------------------------------------------|
|-----------------------------------------------------------|
|-----------------------------------------------------------|
|--------4-4-4---------4-4-4-------4-4-4-------4-4-4--------|
|-5------2-2-2--5------2-2-2--5...-2-2-2--5...-2-2-2--5...--|
|-3-3...--------3-3...--------3...--------3...--------3...--|
|
|-----------------------------------------------------------|
|-----------------------------------------------------------|
|--------7...---------------------------------------------7.|
|-4-4-4--5...-4-4-4--------4-4-4-------4-4-4-------4-4-4--5.|
|-2-2-2-------2-2-2--5...--2-2-2--5...-2-2-2--5...-2-2-2----|
|--------------------3...---------3...--------3...----------|

01:01-01:37 RIFFA

01:37-02:03 RIFFB

02:03-02:30 RIFFC
|-----------------------------------------------------------|
|-----------------------------------------------------------|
|-----------------------------------------------------------|
|-3-3-------------3-3-------------3-3-------------3-3-------|
|-1-1-6-6-5-9-8-6-1-1-6-6-5-9-8-6-1-1-6-6-5-9-8-6-1-1-6-6-5-|
|-----4-4-3-7-6-4-----4-4-3-7-6-4-----4-4-3-7-6-4-----4-4-3-|
|
|-----------------------------------------------------------|
|-----------------------------------------------------------|
|-----------------------------------------------------------|
|-3-3-------------3-3-----------------3-3-------------3-3---|
|-1-1-6-6-5-9-8-6-1-1-6-6-5p-9p-8p-6p-1-1-6-6-5-9-8-6-1-1-6-|
|-----4-4-3-7-6-4-----4-4-3p-7p-6p-4p-----4-4-3-7-6-4-----4-|
|
|---------------------------------------------------|
|---------------------------------------------------|
|---------------------------------------------------|
|---------------------------------------------------|
|-6-5--9-8-6-8-6-5-9-8-6-8-6-5-9-8-6-8-6-5--9--5-5--|
|-4-3--7-6-4-6-4-3-7-6-4-6-4-3-7-6-4-6-4-3--7--3-3--|

=====
=END=
=====
            
Submit corrections

comments powered by Disqus
↑ Back to top | Impaled Nazarene Tabs for 6th Degree Mindfuck. Lyrics for acoustic guitar and electric guitar. 1 Tablatures and chords are parodies/interpretations of the original songs. You may use it for private study, scholarship, research or language learning purposes only