» » »

I Mother Earth, Rasberry Tabs (ver.1)

Artists:  A B C D E F G H I J K L M N O P Q R S T U V W X Y Z # 

Rasberry Tabs (ver.1)

I Mother Earth Tabs
Rating:
0/5 (0 votes)
Rasberry lessons Tabs too difficult? Try these video lessons and learn fast
                Part 1 


e-------------------------------------------------|
b-------------------------------------------------|
G-9/11-11-x-11---11-11-11-11\4---4-4-4-4/6-6-x-4--|
D-x-x---x-x--x----x--x--x--x-x---x-x-x-x-x-x-x-x--|
A-7/9---9-x--9----9--9--9--9\2---2-2-2-2/4-4-x-2--|
E-------------------------------------------------|
                                      
Part 2
e---------------------------------------------------------------------|
b---------------------------------------------------------------------|
G-9/11-11-x-11--11-11-11-11/13-13-13-13--14-14-14--13-13-13---9--9--9-|
D-x-x---x-x--x---x--x--x--x--x--x--x--x---x--x--x---x--x--x---x--x--x-|
A-7/9---9-x--9---9--9--9--9/11-11-11-11--12-12-12--11-11-11--11-11-11-|
E---------------------------------------------------------------------|

Part 3
e----------------------------|
b----------------------------|
G-9/11-11-x-11--11-11-11-13--|
D-x-x---x-x--x---x--x--x--x--|
A-7/9---9-x--9---9--9--9-11--|
E----------------------------|

Part 4
e----|-----------------------------------------------------|
b----|-----------------------------------------------------| 
G-11/|13--13-13-14-13--13-13--13-13--13-13-19--13-13-14-13-|  
D--x/|-x---x--x--x--x---x--x---x--x---x--x--x---x--x--x--x-|  
A--9/|11--11-11-12-11--11-11--11-11--11-11-17--11-11-12-11-| 
E----|-----------------------------------------------------| 
 							   
Fill
e---------------------------|
b---------------------------|
G-6-6-7-7--7-7/9-9-9-9--9\x-|
D-6-6-7-7--7-7/9-9-9-9--9\x-|
A-4-4-5-5--5-5/7-7-7-7--7\x-|
E--------------------------=|

Part 5  repeat 2x
e-----------------------------------------------------|
b-----------------------------------------------------|
G-9-9--7-7--6----6--6-6-------------------------------|
D-9-9--7-7--6----6--6-6---7--7-7--7-7--9--9-9--9-9-9--| 
A-7-7--5-5--4----4--4-4-0-7--7-7--7-7--9--9-9--9-9-9--|
E--------------0----------4--4-4--5-5--7--7-7--7-7-7--|

e---------------------|---|---|--------------------------|
b---------------------|---|---|--------------------------|
G---------------------|---|---|-13-13/14-14-13-11/13-11--| 
D-6/7-6-4----4-4/5-4--|---|-3-|--x--x--x--x--x--x-----x--|
A-6/7-6-4----4-4/5-4--|---|-3-|-11-11/12-12-11--9/11--9--|
E-4/5-4-2----2-2/3-2--|(0)|-1-|--------------------------|
            
Submit corrections

comments powered by Disqus
↑ Back to top | I Mother Earth Tabs for Rasberry. Lyrics for acoustic guitar and electric guitar. Tablatures and chords are parodies/interpretations of the original songs. You may use it for private study, scholarship, research or language learning purposes only