>
 >
Production

Production Guitar Tabs

I Mother Earth - Production chords, tabs, tablatures, lyrics

Guitar lessons | Add/correct | Request | Top 50 tabs Artists:  A B C D E F G H I J K L M N O P Q R S T U V W X Y Z 0-9

Production Guitar Tabs – I Mother Earth

CD, Sheet music, Poster

Do you like Production? Share with your friends now
Tabs
"Production" - I Mother Earth

Standard Tuning - 4/4 Time

Intro 1: (CHORDS: G, F#, D (pick scratches)- G, F#, D, D/E, E)

    G  F# D       G F# D       D/E   E
E|-----------------------------------------|
B|-----------------------------------------|
G|-----------------------------------------|
D|--17-16-12-X---17-16-12-X-X-12/14--14----|
A|--17-16-12-X---17-16-12-X-X-12/14--14----|
E|--15-14-10-X---15-14-10-X-X-10/12--0-----|


*****theres a slap guitar part in here, but im too lazy to tab it******
*****its all on the 12 & 14 fret, E-Pentatonic based - box pattern - FYI******

(31 sec)
Chorus:(CHORDS: E,G,A,D/E, - G,F# - D,C# - A,G#,G)

    E  G   A  D/E     G F#    D C#  A G# G
E|--------------------------------------------|
B|--------------------------------------------|
G|--9--12--2--7/9-----12-11-------------------|
D|--9--12--2--7/9-----12-11--12-11--7-6-5-----|
A|--7--10--0--5/7-----10-9---12-11--7-6-5-----|
E|--0------------------------10-9---5-4-3-----|


(45 sec)
Intro to Verse 1 Riff:
    E                  E           G      E                  E  G    A# A G
E|------------------|------------------|------------------|-------------------|
B|------------------|------------------|------------------|-------------------|
G|------------------|------------------|------------------|-------------------|
D|------------------|--------------5---|------------------|-----5-------------|
A|----7-77---5--5-7-|----7-77---5----7-|----7-77---5--5-7-|-------7^5---------|
E|--0---------7-----|--0---------7-----|--0---------7-----|--0--------6-5-3---|

(52 sec)
Verse 1:
    E                  E           G      E                  E          G
E|------------------|------------------|------------------|-------------------|
B|------------------|------------------|------------------|-------------------|
G|------------------|------------------|------------------|-------------------|
D|------------------|--------------5---|------------------|-------------5-----|
A|----7-77---5--5-7-|----7-77---5----7-|----7-77---5--5-7-|-----7-7^5---------|
E|--0---------7-----|--0---------7-----|--0---------7-----|--0--------7-------|

(1:04 min)
Verse 1 Outro:(CHORDS: D/E,E - D/G,F#,D - D/E,E - D/G,F#,D)

    D/E E  D/G  F# D     D/E E  D/G  F# D
E|------------------------------------------|
B|------9--------------------9--------------|
G|--7/9-9--7/12-11-7-----7/9-9--7/12-11-7---|
D|--7/9-9--7/12-11-7-----7/9-9--7/12-11-7---|
A|--5/7----5/10-9--5-----5/7----5/10-9--5---|
E|------------------------------------------|


(1:10 min)
Chorus:(CHORDS: E,G,A,D/E, - G,F# - D,C# - A,G#,G)

    E  G   A  D/E     G F#    D C#  A G# G
E|--------------------------------------------|
B|--------------------------------------------|
G|--9--12--2--7/9-----12-11-------------------|
D|--9--12--2--7/9-----12-11--12-11--7-6-5-----|
A|--7--10--0--5/7-----10-9---12-11--7-6-5-----|
E|--0------------------------10-9---5-4-3-----|


(1:24 min)
Verse 2:
    E                  E           G      E                  E          G
E|------------------|------------------|------------------|-------------------|
B|------------------|------------------|------------------|-------------------|
G|------------------|------------------|------------------|-------------------|
D|------------------|--------------5---|------------------|-------------5-----|
A|----7-77---5--5-7-|----7-77---5----7-|----7-77---5--5-7-|-----7-7^5---------|
E|--0---------7-----|--0---------7-----|--0---------7-----|--0--------7-------|

(1:37 min)
Verse 2 Outro:(CHORDS: D/E,E - D/G,F#,D - D/E,E - D/G,F#,D)

    D/E E    D/G  F# D        D/E E  D/G  F# D
E|-----------------------------------------------|
B|------9-------------------------9--------------|
G|--7/9-9----7/12-11-7--------7/9-9--7/12-11-7---|
D|--7/9-9----7/12-11-7--------7/9-9--7/12-11-7---|
A|--5/7------5/10-9--5--------5/7----5/10-9--5---|
E|-----------------------------------------------|


(1:43 min)
Chorus:(CHORDS: E,G,A,D/E)

    E  G   A  D/E
E|--------------------|
B|--------------------|
G|--9--12--2--7/9-----|
D|--9--12--2--7/9-----|
A|--7--10--0--5/7-----|
E|--0-----------------|


(1:55 min)
Bridge 1:
SLOW: (CHORDS: F#,A,F# - F#,A,F# - A)

    F#   A F#    F#   A F#    A
E|----------------------------------|------|
B|----------------------------------|------|
G|-------2------------2-4-----2-----|------|
D|--4-X4-2-4\----4-X4-2-4-X-X-2-----|--X2--|
A|--4-X4-0-4\----4-X4-0-4-X-X-0-----|------|
E|--2-X2---2\----2-X2---2-X-X-------|------|

(2:02 min)
FAST: (SINGLE NOTES: F#,F#,A,F#, - F#,A,F#)
E|---------------------------------------------------------------------------|
B|---------------------------------------------------------------------------|
G|---------------------------------------------------------------------------|
D|---------------------------------------------------------------------------|
A|---------------------------------------------------------------------------|
E|--2-2-5-2--2-5-2----2-2-5-2--2-5-2----2-2-5-2--2-5-2----2-2-5-2--2-5-2-----|


(2:08 min)
BRIDGE 2: (CHORDS: A,G,A,G,D,C#,B)
    A    G    A    G  D C# B
E|------------------------------|
B|------------------------------|
G|--6----4----6----4--7-6-4-----|
D|--7----5----7----5--7-6-4-----|
A|--7----5----7----5--5-4-2-----|
E|--5----3----5----3------------|


(2:34 min)
SOLO: (rhythm section - im a bassist, not a soloist) F#,F#,A,F#, - F#,A,F# (ENDS ON E on 
last one)
E|---------------------------------------------------------------------------|------|-----|
B|---------------------------------------------------------------------------|------|-----|
G|---------------------------------------------------------------------------|------|-----|
D|---------------------------------------------------------------------------|--X2--|--2--|
A|---------------------------------------------------------------------------|------|--2--|
E|--2-2-5-2--2-5-2----2-2-5-2--2-5-2----2-2-5-2--2-5-2----2-2-5-2--2-5-2-----|------|--0--|


(2:48 min)
INTERLUDE: (BASS ONLY)
G|---------------------------------|------|-----------------------------|
D|------9-8----------9-8-----------|------|------9-8----------9-8-------|
A|--/7-----------/7------7---------|--X3--|--/7-----------/7------7\----|
E|---------------------------0-7-0-|------|-----------------------------|


(3:11 min)
REFRAIN: (OCTAVES: E,/B,A# - E,/B,A#,G,E) "pro-duc-tion, pro-duc-tion"

    E  /B  A#    E  /B  A#  G E     D/E  /B  A#    E  /B  A#  G E
E|-------------------------------|------------------------------------|
B|-------------------------------|------------------------------------|
G|--9--/16-15----9--/16-15-12-9--|--7/9--/16-15----9--/16-15-12-9-----|
D|-------------------------------|------------------------------------|
A|--7--/14-13----7--/14-13-10-7--|--5/7--/14-13----7--/14-13-10-7-----|
E|-------------------------------|------------------------------------|


(3:24 min)
Chorus: (CHORDS: E,G,A,D/E)

    E  G   A  D/E
E|--------------------|
B|--------------------|
G|--9--12--2--7/9-----|
D|--9--12--2--7/9-----|
A|--7--10--0--5/7-----|
E|--0-----------------|


(3:48 min)
OUTRO: (CHORDS: C#/D,D - C#/D,E - C#/D,D - G,F# - D,C# - A,G#,G)

   C#/D  D          C#/D D E         C#/D  D
E|---------------------------------------------------|
B|---------7-7-7-----------9-9-9------------7-7-7----|
G|--6/7--7-7-7-7----6/7--7-9-9-9-----6/7--7-7-7-7----|
D|--6/7--7-7-7-7----6/7--7-9-9-9-----6/7--7-7-7-7----|
A|--4/5--5-X-X-X----4/5--5-X-X-X-----4/5--5-X-X-X----|
E|---------------------------------------------------|

     G  F#    D  C#   A G# G
E|------------------------------|
B|------------------------------|
G|--12-11-----------------------|
D|--12-11----12-11----7-6-5-----|
A|--10-9-----12-11----7-6-5-----|
E|-----------10-9-----5-4-3-----|





Comments


Popular I Mother Earth tabs & chords
All Awake 1 Bass Tabs
Another Sunday Bass Tabs
Levitate Bass Tabs
One More Astronaut Bass Tabs
One More Astronaut 1 Bass Tabs
Choke Tabs
Like The Sun 1 Tabs
No Coma Tabs
Rasberry Tabs
So Gently We Go Tabs


Song lyrics



↑ Back to top | Tablatures and chords are parodies/interpretations of the original songs. You may use it for private study, scholarship, research or language learning purposes only
© 2014 AZChords.com Contact us | Privacy policy | DMCA | Add/correct tabs | Request tabs | Top 50 tabs