>
 >
No One

No One Guitar Tabs

I Mother Earth - No One chords, tabs, tablatures, lyrics

Guitar lessons | Add/correct | Request | Top 50 tabs Artists:  A B C D E F G H I J K L M N O P Q R S T U V W X Y Z 0-9

No One Guitar Tabs – I Mother Earth

CD, Sheet music, Poster

Do you like No One? Share with your friends now
Tabs
I Mother Earth - "No One"
Standard Tuning



Intro Riff - play 2x (notes on low E string may not be played)
e|-----------------|-------------------|-----------------|-------------------|
B|-----------------|-------------------|-----------------|-------------------|
G|/4-2-----2--2----|---------2---------|-4-2-----2--2----|---------2-2-------|
D|/4-2---4-2--2----|-2---4---2-4-------|-4-2---4-2--2----|-2---4---2-2-------|
A|-------4---------|-2---4-----4-------|-------4---------|-2---4-------------|
E|-----------------|-0---2-----2-------|-----------------|-0---2-------------|




Intro Riff 2

  play 4x:                Ending - () is Guitar 2
e|-----------------|     --------------------|
B|-----------------|     --------------------|
G|-----------------|     ----------(6\)------|
D|---------5-5-----|     -9--8--7--(7\)------|
A|---------0-0-----|     -9--8--7------------|
E|-2-2---0-------0-|     -7--6--5------------|




Riff 2 - play 2x, but check strum rhythm of song

e|----------------|-----------------|----------------|------------------|
B|----------------|-----------------|----------------|------------------|
G|-/11-TP------9--|-11-TP-------/14-|-13--9----------|------------------|
D|----------------|-----------------|----------------|-9/11-----9---7---|
A|-/9--TP------7--|-9--TP-------/12-|-11--7----------|----------9---7---|
E|----------------|-----------------|----------------|-7/9------7---5---|





Verse Riff (0:41)                  First time ending
e|---------------------------|   |---------------------------|
B|---------------------------|   |---------------------------|
G|---------------------------|   |-4------4b6r4-2------------|
D|-2h4---4-----4--4-4---4-4--|   |---------------4-2---------|
A|-2h4---4-----4--4-4---4-4--|   |------------------4-3-2----|
E|-------2--0--2--2-2-0-2-2--|   |------------------------5--|







Play Verse Riff again 8x


 Guitar 2 Verse Part (overlaps verse riff, played 2x):
e|----------------|-------------------|
B|----------------|-------------2-----|
G|----------------|-------------2-----|
D|----------------|-------2--4--2--4--|
A|----------------|-------2--4-----4--|
E|-5--4--3--2~----|-5--4--0--2-----2--|


Play Verse Riff again, with Guitar 2 part during final 4x



Play Riff 2 again



(1:32) - Rhythm Verse Riff 2
  play 4x                    play 2x (with Guitar 2 verse Part)  
e|------------------|      |-----------------|---------------------|
B|------------------|      |-----------------|---------------------|
G|------------------|      |-----------------|---------------2-----|
D|------4-------4---|      |-----4-------4---|-----4---2--4--2--4--|
A|------------------|      |-----------------|---------2--4--0--4--|
E|-0h2----2---2---2-|      |-2-----2---2---2-|-2-----2-0--2-----2--|




Chorus - Rhythm Guitar Chords shown above Lead notes
   
   F#5               E5               D5                A5      B5
e|-----------------|----------------|-----------------|----------------|
B|-/10~~~----------|-9~~~~----------|-10~~~-----------|-(10~~)---------|
G|-----------------|----------------|-----------------|----------------|
D|-----------------|----------------|-----------------|---------9------|
A|-----------------|----------------|-----------------|----------------|
E|-----------------|----------------|-----------------|----------------|

   F#5               E5               D5                A5  Bb5  B5
e|-----------------|----------------|-----------------|----------------|----
B|-7~~~------------|-9~~~------7----|-7~~-------------|----------------|----
G|-----------------|-------------9--|-----------------|----------------|----
D|-----------------|----------------|---------------9-|-7---7-8-9------|-4--
A|-----------------|----------------|-----------------|----------------|-4--
E|-----------------|----------------|-----------------|----------------|-2--



Bridge (2:24)

   play 20x or so
e|-------------------------------|
B|-------------------------------|
G|/11---11-11---11---11-11-11-9--|
D|/11---11-11---11---11-11-11-9--|
A|/9-----9--9----9----9--9--9-7--|
E|-------------------------------|


(2:59) Bridge Riff 2 - play 3x
e|-------------------|-------------------|
B|-------------------|-------------------|
G|-9-----7--9--------|-9-----7-----------|
D|-9--9--7--9--------|-9--9--7-----------|
A|-7--9--5--7--------|-7--9--5-----------|
E|----7--------------|----7----5b6-5--3--|



play 3x                  ending - hold out
-------------------|   --------|
-------------------|   --------|
-9-----7-----------|   --------|
-9--9--7-----------|   --4-----|
-7--9--5-----------|   --4-----|
----7----5b6-5--3--|   --2-----|





Interlude

(3:22) play 3x
e|-------------------|-------------------|
B|-------------------|-------------------|
G|-------------------|-----------2-------|
D|-2-4---4---4-------|-2-4---4---2-------|
A|-2-4---4---4-------|-2-4---4---0-------|
E|-0-2---2---2-------|-0-2---2-----------|

e|-------------------|-------------------|
B|-------------------|-------------------|
G|-------------------|-------------------|
D|-2-4---4---4-------|-2-4---4--4-----x\-|
A|-2-4---4---4-------|-2-4---4--4-----x\-|
E|-0-2---2---2-------|-0-2---2--2-----x\-|


Interlude 2 (3:37) - play 2x                      1st ending       2nd
e|----------------|--------------|----------------|-----------|     -----------|
B|----------------|--------------|----------------|-----------|     -----------|
G|----------------|--------------|----------------|-----------|     -----------|
D|----------------|--------------|----------------|-----------|     -----------|
A|----------------|-7~~~~--------|----------------|-9~~~------|     -----------|
E|-7~~~---/9~~~---|--------------|-7~~~---/9~~~---|-----------|     -6~~~------|


  play 4x,  w/ wah (second guitar plays random notes in background)
e|----------------|--------------|
B|-10~~~----------|--------------|
G|-11~~~----------|--------------|
D|----------------|--------------|
A|----------------|--------------|
E|----------------|--------------|



  (4:06)   
e|-----------|------------|------------|------------|-----------|
B|-----------|------------|------------|------------|-----------|
G|-----------|------------|------------|------------|-----------|
D|-/9~~~-----|--------7-6-|-7~---------|------------|-/9~~~-----|
A|-----------|------------|------------|-7h9~~~~----|-----------|
E|-----------|------------|------------|------------|-----------|



  (4:19)
e|-------------------|
B|-------------------|
G|-6-7~~~----6~~~----| hold out w/ feedback
D|-------------------|
A|-------------------|
E|-------------------|



  (4:27)
e|-------------------|-------------------|------------------|--11~~\---------|
B|-10--10--10/12~~---|-10--10--10\9__\---|-10--10--/12~~-10-|----------------|
G|-------------------|-------------------|------------------|----------------|
D|-------------------|-------------------|------------------|----------------|
A|-------------------|-------------------|------------------|----------------|
E|-------------------|-------------------|------------------|----------------|

e|-------------------|-------------------|------------------|----------------|
B|-10--10--10/12~~---|-10--10--10\9__\---|-10--10--/12~~-10-|--7/21~---------|
G|-------------------|-------------------|------------------|----------------|
D|-------------------|-------------------|------------------|----------------|
A|-------------------|-------------------|------------------|----------------|
E|-------------------|-------------------|------------------|----------------|



  (4:42) - played 3x   (all 8 bars)
e|------------|-------------|--------------|-------------|
B|------------|-------------|-10-----------|-------------|
G|-11~~~------|-(11)--------|--------9-----|-(9)---------|
D|------------|-------------|--------------|-------------|
A|------------|-------------|--------------|-------------|
E|------------|-------------|--------------|-------------|

e|--------------|-------------|-------------|------------|
B|-10-----------|-------------|-------------|------------|
G|--------8-----|-(8)---------|-7-----------|/9----------|
D|--------------|-------------|-------------|------------|
A|--------------|-------------|-------------|------------|
E|--------------|-------------|-------------|------------|




play 2x (5:25)

e|-------------------|-------------------|
B|-------------------|-------------------|
G|-2h4-2~------------|-------------------|
D|-2h4-2~------------|-------------------|
A|-------------------|-------------------|
E|-------------------|-------------------|




Verse Riff Again-           Fourth Bar               Eighth Bar

e|------------------|      ------------------|      ----------------------|
B|------------------|      ------------------|      ----------------------|
G|------------------|      -----------4--2---|      ----------------------|
D|------4-------4---|      ------4----4--2---|      ------4---2h4-2-------|
A|------------------|      ------------------|      ----------------4-2-0-|
E|-0h2----2---2---2-|      -0h2----2---------|      -0h2----2-------------|



Continue playing 'Verse Riff' bar above 4x when lyrics re-enter



Play Guitar 2 Verse Part and Rhythm Verse Riff, like earlier (at 1:32) before
the final chorus



Final Chorus (6:01) - play 2x

   F#5          E5          D5                A5      B5
e|------------|-----------|-------------|-----------------|
B|-/10~~~-----|-9~~~~-----|-10~~~-------|-(10~~)--12--12--|
G|------------|-----------|-------------|---------14b-14b-|
D|------------|-----------|-------------|-----------------|
A|------------|-----------|-------------|-----------------|
E|------------|-----------|-------------|-----------------|

   F#5          E5               D5               
e|------------|----------------|-------------|----------------------|
B|-7~~~-------|-9~~~------7----|-7~~---------|-(7)------------------|
G|------------|-------------9--|-------------|----------------------|
D|------------|----------------|-------------|-----------2nd time---|
A|------------|----------------|-------------|-------------(7h9-9~)-|
E|------------|----------------|-------------|---------(7h9)--------|


Chorus Chords keep going, Lead plays outro:

e|-14---------|-16---------|-17---------|-19--17--16--17-----------------------|
B|-17b--------|-19b--------|-20b--------|---17--17--17--20p17------------------|
G|------------|------------|------------|--------------------16-16br-14-16br-14|
D|------------|------------|------------|--------------------------------------|
A|------------|------------|------------|--------------------------------------|
E|------------|------------|------------|--------------------------------------|


e|----------------------------------|-----------------------------|--slower-----------|
B|----------------------------------|-----------------------------|-------------------|
G|-17p14-16p14--14TP-------14TP-16b-|-16-14TP----14TP--16p14------|-------------------|
D|------------16------14h16---------|----------16-----------14h16~|--14--------16~----|
A|----------------------------------|-----------------------------|--12--------14~----|
E|----------------------------------|-----------------------------|-------------------|



KEY
************************************

| /   slide up
| \   slide down
| h   hammer-on
| p   pull-off
| ~   vibrato
| +   harmonic
| x   Mute note
| b   Bend
| br  Bend & release
| brb Bend release bend

************************************





Comments


Popular I Mother Earth tabs & chords
One More Astronaut Bass Tabs
One More Astronaut 1 Bass Tabs
Raspberry Bass Tabs
Another Sunday Tabs
Good For Sule Tabs
Like The Sun 1 Tabs
Production Tabs
Raspberry 1 Tabs
So Gently We Go Tabs
So Gently We Go 1 Tabs


Song lyrics



↑ Back to top | Tablatures and chords are parodies/interpretations of the original songs. You may use it for private study, scholarship, research or language learning purposes only
© 2014 AZChords.com Contact us | Privacy policy | DMCA | Add/correct tabs | Request tabs | Top 50 tabs