>
 >
Love Your Starfish

Love Your Starfish Guitar Tabs

I Mother Earth - Love Your Starfish chords, tabs, tablatures, lyrics

Guitar lessons | Add/correct | Request | Top 50 tabs Artists:  A B C D E F G H I J K L M N O P Q R S T U V W X Y Z 0-9

Love Your Starfish Guitar Tabs – I Mother Earth

CD, Sheet music, Poster

Do you like Love Your Starfish? Share with your friends now
Tabs
"Love Your Starfish" by I Mother Earth
Drop D tuning

Note that some riff spots uses a full chord, and others use only the octave.
If the middle string is not played, use 2 fingers to hold down the octave notes.


Intro - play w/whammy +1 octave, but allow actual notes to play through

   play 4x                        Pre-Verse, whammy pitch changes shown as /+12\

e|---------------------------|   ----------------------15-/+12\-10-/+12\-12-/+12\-|
B|---3-5-3-------3-5-3--5----|   -------------------------------------------------|
G|-2-----------2-----------1-|   -------------------------------------------------|
D|---------------------------|   -0-/+12\0/+12\0/+12\0----------------------------|
A|---------------------------|   -------------------------------------------------|
D|---------------------------|   --play similar to this---------------------------|


(0:46) Verse Riff 1    
           play 4x                       
e|------||-12-------12----12-------12----12------|
B|------||----12-15----12----12-15----15---------|
G|------||----------------------------------15~--|
D|--2---||---------------------------------------|
A|--2---||---------------------------------------|
D|--2---||---------------------------------------|
          +octave whammy                   

(0:56) Verse Riff 2
e|---------------------------------------------|----------------------------------------|
B|---------------------------------------------|----------------------------------------|
G|---------------------------------------------|----------------0h2---------------------|
D|-2-4h5-4-0---2-4h5-4-0---2-4h5-4-0---0-----0-|-2-4h5-4--0---2----4--0---2-4h5-4-0-2~--|
A|---------------------------------------------|----------------------------------------|
D|---------------------------------------0--0--|----------------------------------------|
   whammy still on 



Prechorus Rhythm Part:
   play 3x
e|---------------------|----------------------|----------------------|-------------------|
B|---------------------|----------------------|----------------------|-------------------|
G|------0------2---2~--|------0------2---2~---|------0------2---2~---|------0------2---2-|
D|-0h2-----2p0---0-----|-0h2-----2p0---0------|-0h2-----2p0---0------|-0h2-----4/5---0---|
A|---------------------|----------------------|----------------------|-------------------|
D|---------------------|----------------------|----------------------|-------------------|
 |
 | Heavy Lead
e|---------------------|----------------------|----------------------|-----------------|
B|---------------------|----------------------|----------------------|-----------------|
G|---------------------|--------------------7-|-7------------------7-|-7-9-------------|
D|---------------------|----------------7h9---|---9------------7h9---|-----9-----------|
A|---------------------|----------------------|----------------------|-----------------|
D|---------------------|----------------------|----------------------|-----------------|




Chorus
e|----------------------|-------------------|------------------|----------------------------|
B|----------------------|-------------------|------------------|----------------------------|
G|----------------------|-------------------|------------------|---------------7--7-7-7-7-7-|
D|------2-0-0---2--0----|-2-0-0---4/5-0-----|-2-0-0---2--0-----|-0h2-2--5\4-0--7--7-7-7-7-7-|
A|------2----------0----|-2-----------0-----|-2----------0-----|-0h2-2--5\4-0--5--5-5-5-5-5-|
D|-9\---2----------0----|-2-----------0-----|-2----------0-----|------------0---------------|


e|------------------|------------------------|------------------|-------------------------|
B|------------------|------------------------|------------------|-------------------------|
G|---------------7~-|-------------11-11-9--7-|---------------7~-|-------------12-12121212-|
D|-2----5p4-0-------|-2--2-5p4-0-------------|-2----5p4-0-------|-2--2-5p4-0--------------|
A|-2----5p4-0----5~-|-2--2-5p4-0--9--9--7--5-|-2----5p4-0----5~-|-2--2-5p4-0--10-10101010-|
D|-2----5p4-0-------|-2--2-5p4-0-------------|-2----5p4-0-------|-2--2-5p4-0--------------|

e|------------------|------------------------|------------------|------------------------|
B|------------------|------------------------|------------------|------------------------|
G|---------------7~-|-------------11-11-9--7-|---------------7~-|---9-9-9-12\11----------|
D|-2----5p4-0-------|-2--2-5p4-0-------------|-2----5p4-0-------|--------------------6~--|
A|-2----5p4-0----5~-|-2--2-5p4-0--9--9--7--5-|-2----5p4-0----5~-|---7-7-7-10\9---x-x-0---|
D|-2----5p4-0-------|-2--2-5p4-0-------------|-2----5p4-0-------|----------------x-x-0---|



Play Verse 2 similarly to before, with random Whammy effects (1:48-2:37)

Play Prechorus

Play Chorus





Break
(3:29) - 2 Guitars (1 Clean, 1 with Amp Tremelo)
   Em
e|-3---------|-(3)-------------|-3-----5-3-----|-3---5---3---2---|
B|-5---------|-(5)-----5-------|-5-----------5-|-5---------------|
G|-4---------|-(4)---4-----4---|-4-------------|-4---------------|
D|-2---------|-(2)-------------|-2-------------|-----------------|
A|-----------|-----------------|---------------|-----------------|
D|-----------|-----------------|---------------|-----------------|




Solo (3:39)

  play this line 2x
e|-----------------------------|-----------------------------|
B|----8--10--8----8-10---8-12--|----8--10--8----8--10--10-8--|
G|/9------------9--------------|-9---------------------------|
D|-----------------------------|-----------------------------|
A|-----------------------------|-----------------------------|
D|-----------------------------|-----------------------------|


e|---------------------------|--------------------------|
B|----7--8--7-----7-8---8-7--|----7--8--7----7-8---7-8--|
G|-7-----------7-------------|-6-----------5------------|
D|---------------------------|--------------------------|
A|---------------------------|--------------------------|
D|---------------------------|--------------------------|


e|-----------------------------|-----------------------------|
B|----8--10--8----8-10---8-12--|----8--10--8----8--10--10-8--|
G|/9------------9--------------|-9---------------------------|
D|-----------------------------|-----------------------------|
A|-----------------------------|-----------------------------|
D|-----------------------------|-----------------------------|


e|---------------------------|-----------------------|
B|----7--8--7-----7-8---8-7--|----7--------8---------|
G|-7-----------7-------------|-6--------5------------|
D|---------------------------|-----------------------|
A|---------------------------|-----------------------|
D|---------------------------|-----------------------|



New Riff (4:05)
e|--------------|---------------|---------------|----------------|
B|--------------|---------------|---------------|----------------|
G|--------------|---------------|---------------|----------------|
D|-2------------|-0h2-------4---|-4/5-----------|-4/5------9-----|
A|-2------------|-0h2-----------|---------------|----------------|
D|-2------------|-0h2-------4---|-4/5-----------|-4/5------9-----|

e|--------------|---------------|---------------|----------------|
B|--------------|---------------|---------------|----------------|
G|--------------|---------------|---------------|----------------|
D|-11-----------|-11-------/14--|-10------------|-10--9--7--5--7-|
A|--------------|---------------|---------------|----------------|
D|-11-----------|-11-------/14--|-10------------|-10--9--7--5--7-|

e|--------------|---------------|---------------|----------------|
B|--------------|---------------|---------------|----------------|
G|-4------------|-4-------7--9--|-4-------------|-4-------9--7---|
D|-5------------|-5----------7--|-2-------------|-2--------------|
A|-5------------|-5----------7--|-2-------------|-2-------7--5---|
D|-5------------|-5----------7--|-2-------------|-2--------------|

e|--------------|----------------|-------------|----------------|------
B|--------------|----------------|-------------|----------------|------
G|-2------------|-2--------------|-------------|----------------|------
D|-0------------|-0-----9/10-9-7-|-4/5--5--7---|-7--9--10---12--|--14--
A|-0------------|-0--------------|-------------|----------------|------
D|-0------------|-0-----9/10-9-7-|-4/5--5--7---|-7--9--10---12--|--14--


Play prechorus again


Play Chorus again


Ending (5:27)
  play 3x                              Final
e|-----------------------------|     --------------------|
B|-----------------------------|     --------------------|
G|-----------------------------|     --------------------|
D|-0h2--2-2-5/7--4--4-4-4--2p0-|     -2--2-2--5\4--x-x-0-|
A|-----------------------------|     --------------x-x-0-|
D|-0h2--2-2-5/7--4--4-4-4--2p0-|     -2--2-2--5\4--x-x-0-|


key
| /  slide up
| \  slide down
| h  hammer-on
| p  pull-off
| ~  vibrato
| x  Mute note
|()  hold note from previous bar





Comments


Popular I Mother Earth tabs & chords
One More Astronaut 1 Bass Tabs
Raspberry Bass Tabs
Another Sunday Chords
Another Sunday Tabs
Levitate Tabs
Levitate 1 Tabs
Like The Sun Intro 1 Tabs
Like The Sun Intro 2 Tabs
Raspberry Tabs
Raspberry 1 Tabs


Song lyrics



↑ Back to top | Tablatures and chords are parodies/interpretations of the original songs. You may use it for private study, scholarship, research or language learning purposes only
© 2014 AZChords.com Contact us | Privacy policy | DMCA | Add/correct tabs | Request tabs | Top 50 tabs