>
 >
Levitate

Levitate Bass Tabs

I Mother Earth - Levitate chords, tabs, tablatures, lyrics

Guitar lessons | Add/correct | Request | Top 50 tabs Artists:  A B C D E F G H I J K L M N O P Q R S T U V W X Y Z 0-9

Levitate Bass Tabs – I Mother Earth

CD, Sheet music, Poster

Do you like Levitate? Share with your friends now
Bass TabsTabsTabs v2
By I Mother Earth


This song isn't really too tough.  Some of the parts are a little hard 
to pick out but I did my best and I think it's pretty close.  As per 
usual any feedback, suggestions, questions, comments, death threats 
or other oh-so important correspondence can be shoved directly up 
your ass...  Just kidding, they can be sent to the above e-mail address.

This is in Drop D tuning.  

Intro / Verse Pt.1  "Feel Heavy..."
G ---------------------------------------------------------------------
D ---------------------------------------------------------------------
A ------5h6-5-5-5-5555--------5h6-5-5-5-5555---------------------------
D -0-00------------------0-00------------------------------------------

G ---------------------------------------------------------------------
D ---------------------------------------------------------------------
A ------5h6-5-5-5-5555--------5h6-5-555/9-9----------------------------
D -0-00------------------0-00----------------0-------------------------

Verse Pt.2 "Felt it..."  Play the slide to 17 really slow
G ---------------------------------------------------------------------
D ---------------------------------------------------------------------
A ---------------/17--15--12-13----------------------------------------
D -12--10--7-(8)-------------------------------------------------------

Verse Pt.3 "There's both shining and darkness..."
G ---------------------------------------------------------------------
D ---------------------------------------------------------------------
A -3h5-5-3h5-5-3h5-5/8-------------------------------------------------
D ---------------------------------------------------------------------
"Like a stone..."
G ---------------------------------------------------------------------
D ---------------------------------------------------------------------
A -3h555-3h555-3h5555-3h555-------------------------------------------
D ---------------------------------------------------------------------

Chorus 1
G ---------------------------------------------------------------------
D ---------------------------------------------------------------------
A -----------------------------5------------------------------5--------
D -7p5h7-7p5h7-78---7p5h7-7p5h7----7p5h7-7p5h78----7p5h7-7p5h7-78------

The following doesn't attempt to represent the rythm (or the right 
number of times to hit the string for that matter...)
G ---------------------------------------------------------------------
D ---------------------------------------------------------------------
A ---------------------------------------------------------------------
D -12121212--10101010--888888--10101010--12121212--14141414--17171717--

G ---------------------------------------------------------------------
D ---------------------------------------------------------------------
A ---------------------------------------------------------------------
D -1515-14-12-10-8-7/12-12---------------------------------------------

Interlude (Jam Pt. 1) (This continues through the entire solo)
G ---------------------------------------------------------------------
D ---------------------------------------------------------------------
A ---------------------5h7---------------------------------------------
D -5h7-7-7-5h7-7-7-5h7-------------------------------------------------

Jam Lick (Pt. 2)
G --------------------------121212-10----------------------------------
D -----------------------------------12-10-9-11------------------------ 
A ---------------5h7---------------------------------------------------
D -5h7-7-7-7-5h7-----5h7-7-7-------------------------------------------

Jam Ending (Pt. 3)
G ---------------------------------------------------------------------
D ---------------------------------------------------------------------
A ----------------3h5---------------3h5--------------------------------
D -3h5-5-5-5--3h5-----3h5-5-5-5-3h5------------------------------------

Bridge "Trancin' in the grass..."
G ---------------------------------------------------------------------
D ---------------------------------------------------------------------
A -----3---2----1------------------------------------------------------
D -0-------------------------------------------------------------------

Chorus 2
G ---------------------------------------------------------------------
D ---------------------------------------------------------------------
A ---------------------------------------------------------------------
D --7-7--10-10--12-12--12p10h12-12-10------7-7--5-5--33333--5----------

Groove
G ---------------------------------------------------------------------
D --------------------10h12-121212-12-10---------------------10h12-----
A ---------------10h12------------------12-10-----------10h12----------
D --12-12-121212-----------------------------12-12-1212----------------

G -14-12---------------------------------------------------------------
D -------14-12-10-12---------------------------------------------------
A ---------------------------------------------------------------------
D ---------------------------------------------------------------------

Outro
G -----------------------------121212-10-------------------------------
D --------------------------------------12-10-9-11---------------------
A ---------------------------------------------------------------------
D -5h7-7-7-7-7-7-5h7-7-7-7-7-7-----------------------------------------

G ---------------------------------------------------------------------
D ---------------------------------------------------------------------
A ---------------------------------------------------------------------
D -5h7-7-7-7-7-7/8--5h7-7-7-7-7-7/8--5h7-7-7-7-7-7/8--5h7-7-7-7-7-7/8-3





Comments


Popular I Mother Earth tabs & chords
All Awake Bass Tabs
All Awake 1 Bass Tabs
Another Sunday Chords
Another Sunday Tabs
Levitate 1 Tabs
Like The Sun Tabs
Like The Sun (Intro) Tabs
Rasberry Tabs
So Gently We Go Tabs
So Gently We Go 1 Tabs


Song lyrics



↑ Back to top | Tablatures and chords are parodies/interpretations of the original songs. You may use it for private study, scholarship, research or language learning purposes only
© 2014 AZChords.com Contact us | Privacy policy | DMCA | Add/correct tabs | Request tabs | Top 50 tabs