>
 >
I Is Us

I Is Us Guitar Tabs

I Mother Earth - I Is Us chords, tabs, tablatures, lyrics

Guitar lessons | Add/correct | Request | Top 50 tabs Artists:  A B C D E F G H I J K L M N O P Q R S T U V W X Y Z 0-9

I Is Us Guitar Tabs – I Mother Earth

CD, Sheet music, Poster

Do you like I Is Us? Share with your friends now
Tabs
I Mother Earth
the Quicksilver Meat Dream (2003)

An extremely rockin song. This is my version, played in standard tuning.
Blank columns are for spacing not timing. Timing is approximate.


                                                        Even in the
e|--------------------------------------------------------
b|--------------------------------------------------------
g|--------------------------------------------------------
d|--------------------------------------------------------
a|--------------------------------------------------------
E|--------------------------------------------------------

   wreck house   of a promise
			   even in the
e|------------------------------
b|------------------------------
g|-4-4---4-4-4---4-4-4---/6\2/4-
d|------------------------------
a|-2-2---2-2-2---2-2-2---/4\0/2-
E|------------------------------

   gem blow      of an awe fist
			  everyone's an
e|------------------------------
b|------------------------------
g|-4-4---4-4-4---4-4-4---/6\2/4-
d|------------------------------
a|-2-2---2-2-2---2-2-2---/4\0/2-
E|------------------------------

   air flow      through the blonde dirt
			  everyone's an
e|------------------------------
b|------------------------------
g|-4-4---4-4-4---4-4-4---/6\2/4-
d|------------------------------
a|-2-2---2-2-2---2-2-2---/4\0/2-
E|------------------------------

   asshole       in the wonder  
			 when every
e|--------------------------------
b|--------------------------------
g|-4-4---4-4-4---4-4-4---4-4-4----
d|--------------------------------
a|-2-2---2-2-2---2-2-2---2-2-2----
E|--------------------------------

   commotion                        controls my wants
e|--- -- -- ---- -- -- ---- -- -- ---- ---- -- -- ---- -- -- -
b|--- -- -- ---- -- -- ---- -- -- ---- ---- -- -- ---- -- -- -
g|-/10-10-10---10-10-10---10-10-10---11\8/10-10-10---10-10-10-
d|--- -- -- ---- -- -- ---- -- -- ---- ---- -- -- ---- -- -- -
a|-/8 -8 -8 ---8 -8 -8 ---8 -8 -8 ---9 \6/8 -8 -8 ---8 -8 -8 -
E|--- -- -- ---- -- -- ---- -- -- ---- ---- -- -- ---- -- -- -

	    I'll lay down long                     and know
e|-- -- -- ------- --  -- -- ---- -- -- ---- -- -- -
b|-- -- -- ------- --  -- -- ---- -- -- ---- -- -- -
g|-10-10-10---15\10-10b-10-10---10-10-10---10-10-10-
d|-- -- -- ------- --  -- -- ---- -- -- ---- -- -- -
a|-8 -8 -8 ---13\8 -8b -8 -8 ---8 -8 -8 ---8 -8 -8 -
E|-- -- -- ------- --  -- -- ---- -- -- ---- -- -- -

   other hurts                                If it's not a
e|-- ---- -- -- ---- -- -- ---- -- -- ---- -- -- ---
b|-- ---- -- -- ---- -- -- ---- -- -- ---- -- -- ---
g|-11\8/10-10-10---10-10-10---10-10-10---10-10/11-4-
d|-- ---- -- -- ---- -- -- ---- -- -- ------- -- ---
a|-9 \6/8 -8 -8 ---8 -8 -8 ---8 -8 -8 ---8 -8 /9 -2-
E|-- ---- -- -- ---- -- -- ---- -- -- ---- -- -- ---

   problem                I want you to work me good
e|-----------------------------------------------------
b|-----------------------------------------------------
g|-8-8---8-8-8---8-8-8---8-8-8--/9-9-9---9-9-9---9-9-9-
d|-----------------------------------------------------
a|-6-6---6-6-6---6-6-6---6-6-6--/7-7-7---7-7-7---7-7-7-
E|-----------------------------------------------------

   I want you in motion
e|---------- -- -- ---- -- -- ---- -- -- -
b|---------- -- -- ---- -- -- ---- -- -- -
g|-9-9-9--/11-11-11---11-11-11---11-11-11- 
d|---------- -- -- ---- -- -- ---- -- -- -
a|-7-7-7--/9 -9 -9 ---9 -9 -9 ---9 -9 -9 -
E|---------- -- -- ---- -- -- ---- -- -- -

   I want you to go      down full
e|-- -- -- ---- -- -- ---- -- -- ---- -- -- -
b|-- -- -- ---- -- -- ---- -- -- ---- -- -- -
g|-11-11-11--/13-13-13---13-13-13---13-13-13-
d|-- -- -- ---- -- -- ---- -- -- ---- -- -- -
a|-9 -9 -9 --/11-11-11---11-11-11---11-11-11-
E|-- -- -- ---- -- -- ---- -- -- ---- -- -- -

   I want you to yell                        with your
e|-- -- -- ---- -- -- ---- -- -- ---- -- -- -
b|-- -- -- ---- -- -- ---- -- -- ---- -- -- -
g|-13-13-13--/15-15-15---15-15-15---15-15-15-
d|-- -- -- ---- -- -- ---- -- -- ---- -- -- -
a|-11-11-11--/13-13-13---13-13-13---13-13-13-
E|-- -- -- ---- -- -- ---- -- -- ---- -- -- -

   hair in my fingers                     you know you make me so
e|-- -- -- ---- -- -- ---- -- -- ---- -- 
b|-- -- -- ---- -- -- ---- -- -- ---- -- 
g|-15-15-15--\13-13-13---13-13-13---13-13
d|-- -- -- ---- -- -- ---- -- -- ---- --    let ring
a|-13-13-13--\11-11-11---11-11-11---11-11
E|-- -- -- ---- -- -- ---- -- -- ---- -- 

[kick on the distortion man!]

                          misogynous
e|-----------------------------------
b|-----------------------------------
g|-7-4---7---4-7--4--7-4--7-4-9-(7b)-
d|-7-4---7---4-7--4--7-4--7-4-9-(7b)-
a|-5-2---5---2-5--2--5-2--5-2-7-(5b)-
E|-----------------------------------

                          when I is us
e|--------------------------------
b|--------------------------------
g|-7-4---7---4-7--4--7-4--7-4-(9)-
d|-7-4---7---4-7--4--7-4--7-4-(9)-
a|-5-2---5---2-5--2--5-2--5-2-(7)-
E|--------------------------------

                      ooh misogynous
e|-------------------------------------
b|-------------------------------------
g|-7-4---7---4-7--4--7-4--7-4-(9)-(7b)-
d|-7-4---7---4-7--4--7-4--7-4-(9)-(7b)-
a|-5-2---5---2-5--2--5-2--5-2-(7)-(5b)-
E|-------------------------------------

                          when I is us
e|------------------------------
b|------------------------------
g|-7-4---7---4-7--4--7-4--7-4-9-
d|-7-4---7---4-7--4--7-4--7-4-9-
a|-5-2---5---2-5--2--5-2--5-2-7-
E|------------------------------

[kick off the distortion!]
                                                  Every time the
e|--------------------------------------------------------
b|--------------------------------------------------------
g|--------------------------------------------------------
d|--------------------------------------------------------
a|--------------------------------------------------------
E|--------------------------------------------------------

   bed breaks there's a hunger
			  every second
e|------------------------------
b|------------------------------
g|-4-4---4-4-4---4-4-4---/6\2/4-
d|------------------------------
a|-2-2---2-2-2---2-2-2---/4\0/2-
E|------------------------------

   heart aches with a thunder
			   heaven in the
e|------------------------------
b|------------------------------
g|-4-4---4-4-4---4-4-4---/6\2/4-
d|------------------------------
a|-2-2---2-2-2---2-2-2---/4\0/2-
E|------------------------------

   jet stream    of a bong drain
			  heaven in the
e|------------------------------
b|------------------------------
g|-4-4---4-4-4---4-4-4---/6\2/4-
d|------------------------------
a|-2-2---2-2-2---2-2-2---/4\0/2-
E|------------------------------

   meat dream  of an all-way
                         when every
e|-----------------------------
b|-----------------------------
g|-4-4---4-4-4---4-4-4---4-4-4-
d|-----------------------------
a|-2-2---2-2-2---2-2-2---2-2-2-
E|-----------------------------

   emotion                         takes hold and haunts
e|--- -- -- ---- -- -- ---- -- -- ---- ---- -- -- ---- -- -- -
b|--- -- -- ---- -- -- ---- -- -- ---- ---- -- -- ---- -- -- -
g|-/10-10-10---10-10-10---10-10-10---11\8/10-10-10---10-10-10-
d|--- -- -- ---- -- -- ---- -- -- ---- ---- -- -- ---- -- -- -
a|-/8 -8 -8 ---8 -8 -8 ---8 -8 -8 ---9 \6/8 -8 -8 ---8 -8 -8 -
E|--- -- -- ---- -- -- ---- -- -- ---- ---- -- -- ---- -- -- -

	    I lay down long                        and know
e|-- -- -- ---- -- --  -- -- ---- -- -- ---- -- -- -
b|-- -- -- ---- -- --  -- -- ---- -- -- ---- -- -- -
g|-10-10-10---15\10-10b-10-10---10-10-10---10-10-10-
d|-- -- -- ---- -- --  -- -- ---- -- -- ---- -- -- -
a|-8 -8 -8 ---13\8 -8b -8 -8 ---8 -8 -8 ---8 -8 -8 -
E|-- -- -- ---- -- --  -- -- ---- -- -- ---- -- -- -

   other worlds                                If it's not a
e|-- ---- -- -- ---- -- -- ---- -- -- ---- -- -- ---
b|-- ---- -- -- ---- -- -- ---- -- -- ---- -- -- ---
g|-11\8/10-10-10---10-10-10---10-10-10---10-10/11-4-
d|-- ---- -- -- ---- -- -- ---- -- -- ---- -- -- ---
a|-9 \6/8 -8 -8 ---8 -8 -8 ---8 -8 -8 ---8 -8 /9 -2-
E|-- ---- -- -- ---- -- -- ---- -- -- ---- -- -- ---

   problem                I want you to work me good
e|-----------------------------------------------------
b|-----------------------------------------------------
g|-8-8---8-8-8---8-8-8---8-8-8--/9-9-9---9-9-9---9-9-9-
d|-----------------------------------------------------
a|-6-6---6-6-6---6-6-6---6-6-6--/7-7-7---7-7-7---7-7-7-
E|-----------------------------------------------------

   I want you in motion
d|---------- -- -- ---- -- -- ---- -- -- -
d|---------- -- -- ---- -- -- ---- -- -- -
g|-9-9-9--/11-11-11---11-11-11---11-11-11- 
d|---------- -- -- ---- -- -- ---- -- -- -
a|-7-7-7--/9 -9 -9 ---9 -9 -9 ---9 -9 -9 -
d|---------- -- -- ---- -- -- ---- -- -- -

   I want you to go      down full
e|-- -- -- ---- -- -- ---- -- -- ---- -- -- -
b|-- -- -- ---- -- -- ---- -- -- ---- -- -- -
g|-11-11-11--/13-13-13---13-13-13---13-13-13-
d|-- -- -- ---- -- -- ---- -- -- ---- -- -- -
a|-9 -9 -9 --/11-11-11---11-11-11---11-11-11-
E|-- -- -- ---- -- -- ---- -- -- ---- -- -- -

   I want you to yell                        with your
e|-- -- -- ---- -- -- ---- -- -- ---- -- -- -
b|-- -- -- ---- -- -- ---- -- -- ---- -- -- -
g|-13-13-13--/15-15-15---15-15-15---15-15-15-
d|-- -- -- ---- -- -- ---- -- -- ---- -- -- -
a|-11-11-11--/13-13-13---13-13-13---13-13-13-
E|-- -- -- ---- -- -- ---- -- -- ---- -- -- -

   smell on my fingers                    you know you
e|-- -- -- ---- -- -- ---- -- -- ---- -- 
b|-- -- -- ---- -- -- ---- -- -- ---- -- 
g|-15-15-15--\13-13-13---13-13-13---13-13
d|-- -- -- ---- -- -- ---- -- -- ---- --   let ring
a|-13-13-13--\11-11-11---11-11-11---11-11
E|-- -- -- ---- -- -- ---- -- -- ---- -- 

[kick on the distortion man!]

   make me so
e|------------
b|------------
g|------x-x-x-
d|------x-x-x-
a|------x-x-x-
E|------x-x-x-

                          misogynous
e|-----------------------------------
b|-----------------------------------
g|-7-4---7---4-7--4--7-4--7-4-9-(7b)-
d|-7-4---7---4-7--4--7-4--7-4-9-(7b)-
a|-5-2---5---2-5--2--5-2--5-2-7-(5b)-
E|-----------------------------------

                          when I is us
e|--------------------------------
b|--------------------------------
g|-7-4---7---4-7--4--7-4--7-4-(9)-
d|-7-4---7---4-7--4--7-4--7-4-(9)-
a|-5-2---5---2-5--2--5-2--5-2-(7)-
E|--------------------------------

                      ooh misogynous
e|-------------------------------------
b|-------------------------------------
g|-7-4---7---4-7--4--7-4--7-4-(9)-(7b)-
d|-7-4---7---4-7--4--7-4--7-4-(9)-(7b)-
a|-5-2---5---2-5--2--5-2--5-2-(7)-(5b)-
E|-------------------------------------

                          when I is us
e|------------------------------
b|------------------------------
g|-7-4---7---4-7--4--7-4--7-4-9-
d|-7-4---7---4-7--4--7-4--7-4-9-
a|-5-2---5---2-5--2--5-2--5-2-7-
E|------------------------------

[kick off the distortion!]

                         you make me so
e|-----------------------------
b|-4-4---4-4-4---4-4-4---4-4-4-
g|-4-4---4-4-4---4-4-4---4-4-4-
d|-----------------------------
a|-2-2---2-2-2---2-2-2---2-2-2-
E|-----------------------------

                         oh yeah you make me so
e|-------------------------------
b|-4-5-5---5-5-5---5-5-5---5-5-5-
g|-4-4-4---4-4-4---4-4-4---4-4-4-
d|-------------------------------
a|-2-2-2---2-2-2---2-2-2---2-2-2-
E|-------------------------------

                         you know you make me so
e|-------------------------------
b|-5-4-4---4-4-4---4-4-4---4-4-4-
g|-4-4-4---4-4-4---4-4-4---4-4-4-
d|-------------------------------
a|-2-2-2---2-2-2---2-2-2---2-2-2-
E|-------------------------------

                       oh yeah you make me so
e|-------------------------------
b|-4-5-5---5-5-5---5-5-5---5-5-5-
g|-4-4-4---4-4-4---4-4-4---4-4-4-
d|-------------------------------
a|-2-2-2---2-2-2---2-2-2---2-2-2-
E|-------------------------------

     [drums]           you know you make me so
e|-------------------------------
b|-5-4-4---4-4-4---4-4-4---4-4-4-
g|-4-4-4---4-4-4---4-4-4---4-4-4-
d|-------------------------------
a|-2-2-2---2-2-2---2-2-2---2-2-2-
E|-------------------------------

                        oh yeah you make me so!!!
e|--------------------
b|-4-5-5---5-5-5---5-5
g|-4-4-4---4-4-4---4-4
d|--------------------  let ring
a|-2-2-2---2-2-2---2-2
E|--------------------

[kick on the distortion!]

e|---------------------------------------
b|---------------------------------------
g|-7-4-/14--4-4----------7-4--/14--------
d|-7-4-/14--4-4----------7-4--/14--------
a|-5-2-/12--2-2----------5-2--/12--------
E|---------------------------------------

                                  and now we know
e|---------------------------------------
b|---------------------------------------
g|-7-4-/14--4-4----------7-4--/14--------
d|-7-4-/14--4-4----------7-4--/14--------
a|-5-2-/12--2-2----------5-2--/12--------
E|---------------------------------------

[turn off the distortion]
[this last part isn't exact but it sounds ok]

                     the sound of blue eyes
e|-----------------------------
b|-4-4---4-4-4---4-4-4---4-4-4-
g|-4-4---4-4-4---4-4-4---4-4-4-
d|-----------------------------
a|-2-2---2-2-2---2-2-2---2-2-2-
E|-----------------------------

   rolled over          the smell of fine young
e|-------------------------------
b|-4-5-5---5-5-5---5-5-5---5-5-5-
g|-4-4-4---4-4-4---4-4-4---4-4-4-
d|-------------------------------
a|-2-2-2---2-2-2---2-2-2---2-2-2-
E|-------------------------------

   hope                the feel and taste of
e|-------------------------------
b|-5-4-4---4-4-4---4-4-4---4-4-4-
g|-4-4-4---4-4-4---4-4-4---4-4-4-
d|-------------------------------
a|-2-2-2---2-2-2---2-2-2---2-2-2-
E|-------------------------------

   always                so I can't yet
e|---4-4---4-4-4---4-4-4---4-4-4-
b|-4-----------------------------
g|-4-4-4---4-4-4---4-4-4---4-4-4-
d|-------------------------------
a|-2-2-2---2-2-2---2-2-2---2-2-2-
E|-------------------------------

   shout   and I can't roll over
			   and I'm breaking a sweat
e|-4-----------------------------
b|---4-4---4-4-4---4-4-4---4-4-4-
g|-4-4-4---4-4-4---4-4-4---4-4-4-
d|-------------------------------
a|-2-2-2---2-2-2---2-2-2---2-2-2-
E|-------------------------------

   it's time to wake up
                       Thank you, you've made me so
e|--------------------
b|-4-5-5---5-5-5---5-5
g|-4-4-4---4-4-4---4-4
d|--------------------   let ring
a|-2-2-2---2-2-2---2-2
E|--------------------

[distortion on!]

                       you've made me so!!!
e|-----------------------------------
b|-----------------------------------
g|-7-4---7---4-7--4--7-4--7-4-9-(7b)-
d|-7-4---7---4-7--4--7-4--7-4-9-(7b)-
a|-5-2---5---2-5--2--5-2--5-2-7-(5b)-
E|-----------------------------------

                       you've made me so
e|--------------------------------
b|--------------------------------
g|-7-4---7---4-7--4--7-4--7-4-(9)-
d|-7-4---7---4-7--4--7-4--7-4-(9)-
a|-5-2---5---2-5--2--5-2--5-2-(7)-
E|--------------------------------

                       you know you've made me so
e|-------------------------------------
b|-------------------------------------
g|-7-4---7---4-7--4--7-4--7-4-(9)-(7b)-
d|-7-4---7---4-7--4--7-4--7-4-(9)-(7b)-
a|-5-2---5---2-5--2--5-2--5-2-(7)-(5b)-
E|-------------------------------------

                              and I is us
e|-----------------------------
b|-----------------------------
g|-7-4---7---4-7--4--7-4--7-4-9
d|-7-4---7---4-7--4--7-4--7-4-9  mute
a|-5-2---5---2-5--2--5-2--5-2-7
E|-----------------------------





Comments


Popular I Mother Earth tabs & chords
One More Astronaut Bass Tabs
Summertime In The Void Bass Tabs
Another Sunday Tabs
Levitate Tabs
Levitate 1 Tabs
Like The Sun Tabs
No One Tabs
One More Astronaut Tabs
So Gently We Go 1 Tabs
When Did You Get Back From Mars? Tabs


Song lyrics



↑ Back to top | Tablatures and chords are parodies/interpretations of the original songs. You may use it for private study, scholarship, research or language learning purposes only
© 2014 AZChords.com Contact us | Privacy policy | DMCA | Add/correct tabs | Request tabs | Top 50 tabs