» » »

Choke Tabs (ver.1)

Artists:  A B C D E F G H I J K L M N O P Q R S T U V W X Y Z # 

Choke Tabs (ver.1)

I Mother Earth
Rating:
0/5 (0 votes)

Hard to play? Try these video lessons and learn fast.
                ok. Ive finally tabbed the whole song.

The intro is playing harmonics on the 3rd fret. The way its played is by putting your
on the third fret before the bar. Then when the note changes, keep your finger in the 3rd
but move in towards the tuning head about 2 centimetres, but keep your finger within the 
fret and it will change the note.

I will put a 2* just to show where the note changes but it is really still a 3rd fret harmonic!

Drop D!

Intro/Verse

e|---------------------------------------------------------|
b|---------------------------------------------------------|
g|---------------------------------------------------------|
d|---------------------------------------------------------|
a|---------------------------------------------------------|
D|---0~-3*3*---0~-3*3*---0~-3*3*---3*-3*-3*-3*-2*-3*-3*-3*-|

Chorus

e|--------------------------------------------------------------------|
b|------66-----66-----66--6-8-10--------------------------------------|
g|------55-----55-----55--5-7-9------1010-----1010-----7-7------7-7---|
d|---0--33--0--33--0--33--3-5-7---8--------8--------5--------5--------|
a|---0------0------0--------------8--8-8---8--8-8---5--5-5---5--5-5---|
D|---0------0------0--------------8--------8--------5--------5--------|

Lead:
(This is that snyth type thing that plays here, throughout the 2nd verse
and in the bridge)

e|-------------------------------------------|
b|-------------------------------------------|
g|---14-14-14--14-14-7---14-14-14--14-14-17--|
d|-------------------------------------------|
a|---12-12-12--12-12-5---12-12-12--12-12-15--|
D|-------------------------------------------|

e|-------------------------------------------|
b|-------------------------------------------|
g|---14-14-14--14-14-7---17-17-17-17-14-14-7-|
d|-------------------------------------------|
a|---12-12-12--12-12-5---15-15-15-15-12-12-5-|
D|-------------------------------------------|

Bridge 1

e|------------------------------------------------|
b|-------------------------------------------3~~--|
g|-------------------------------------------2~~--|
d|---7-xx-7-xx-7-xx-7-xx-78\-78\--x10-----0--0~~--|
a|---7-xx-7-xx-7-xx-7-xx-78\-78\--x10-----0-------|
D|---7-xx-7-xx-7-xx-7-xx-78\-78\--x10-----0-------|

e|----------------------------------------------------------------------|
b|----------------------------------------------------------------------|
g|----------------------------------------------------------------------|
d|---77777777-777777777-88888888-88888888-8/10-10-10-10-10-10~~---0~~~--|
a|---77777777-777777777-88888888-88888888-8/10-10-10-10-10-10~~---0~~~--|
D|---77777777-777777777-88888888-88888888-8/10-10-10-10-10-10~~---0~~~--|

End on:
(after final chorus)

e|--------|
b|--------|
g|--------|
d|---5\---|
a|---5\---|
D|---5\---|
            
Hard to play? Try these video lessons and learn fast. | Correct




comments powered by Disqus
↑ Back to top | Tablatures and chords are parodies/interpretations of the original songs. You may use it for private study, scholarship, research or language learning purposes only