» » »

I Mother Earth, Another Sunday Bass tabs (ver.1)

Artists:  A B C D E F G H I J K L M N O P Q R S T U V W X Y Z # 

Another Sunday Bass tabs (ver.1)

I Mother Earth Tabs
 Rating:
4/5 (4 votes)
Another Sunday lessons Tabs too difficult? Try these video lessons and learn fast
                -----------------------------------------------------------------------------
-----------------------------------------------------------------------------


Tuning: drop D

   0:24
   Verse
G|------|-----------------|-----------------|-----------------|-------------|
D|------|-----------------|-----------------|-----------------|-------------|
A|------|-----------------|-----------------|-----------------|-------------|
D|--7-8-|-9\--5---5-5-5-5\|-0---8-8-8-8-7-8/|-9\--5---5-5-5-5\|-0--8-8-8-8--|

G|------|-----------------|-----------------|-----------------|-------------|
D|------|-----------------|-----------------|-----------------|-------------|
A|------|-----------------|-----------------|-----------------|-------------|
D|-7-8/-|-9\--5---5-5-5-5\|-0---8-8-8-8-7-8/|-9\--5---5-5-5-5\|-0--8-8-8-8--|

   Pre Chorus
G|-----|-------------------------|-----------------|-----------------|
D|-----|-------------------------|-----------------|-----------------|
A|-----|-------------------------|-----------------|-----------------|
D|-7-8-|-9/-10-10-10-10-10-10-10-|-9-9-9-9-9-9-9-9-|-5-5-5-5-5-5-5-5-|

G|-----------------|-----------------|----------------|-----------------|
D|-----------------|-----------------|----------------|-----------------|
A|-----------------|-----------------|----------------|-------------5-6-|
D|-3-3-3-3-3-3-3-3-|-2-2-2-2-2-2-2-2-|-0-0-0-0-0-0-0-0|-0-0-0-0-0-0-----|

   Chorus
G|----------------|-----------------|-----------------|-----------------|
D|----------------|-----------------|-----------------|-----------------|
A|-7\-------------|-----------------|-----------------|-----------------|
D|----5---5-5-5-5\|-0-0-0-0-0-0-0-0-|-5-5-5-5-5-5-5-5-|-4-4-4-4-4-4-4-4-|

G|-----------------|-----------------|-----------------|-----------------|
D|-----------------|-----------------|-----------------|-----------------|
A|-----------------|-----------------|-3-3-3-3-3-3-3-3-|-3-3-3-3-3-2-2-0-|
D|-2-2-2-2-2-2-2-2-|-0-0-0-0-0-0-0-0-|-----------------|-----------------|

G|------------------|-----------------|-----------------|-----------------|
D|------------------|-----------------|-----------------|-----------------|
A|------------------|-----------------|-----------------|-----------------|
D|-5-x-5~---5-5-5-4-|-0-0-0-0-0-0-0-0-|-5-5-5-5-5-5-5-5-|-4-4-4-4-4-4-4-4-|
4
G|-----------------|-----------------|-----------------|-----------------|
D|-----------------|-----------------|-----------------|-----------------|
A|-----------------|-----------------|-3-3-3-3-3-3-3-3-|-3-3-3-3-3-3-x---|
D|-2-2-2-2-2-2-2-2-|-0-0-0-0-0-0-0-0-|-----------------|---------------5~|

  Verse 2
G|---------------|-----------------|-------------------|-----------------|
D|---------------|-----------------|-------------------|-----------------|
A|-10~-----10\-9\|-5-5~-----5-5/-9-|-10-.-10~----10\-9\|-5-5~-----5-5/-9-|
D|---------------|-----------------|-------------------|-----------------|

G|-------------------|-----------------|-------------------|---------------|
D|-------------------|-----------------|-------------------|---------------|
A|-10-.-10~----10\-9\|-5-5~-----5-5/-9-|-10-.-10-----10\-9\|-5-5~----5-----|
D|-------------------|-----------------|-------------------|-----------8-9-|

G|-----------------|
D|-----------------|  then go back to verse 1 part followed by the pre chorus
A|-----------------|    the chorus
D|-10\-5---5-5-5-5\|...


   Bridge
G|-----|--------------------|--------------------|--------------------|
D|-----|------------------2-|------------------2-|------------------2-|
A|-2-2-|---4-------4----4---|---4-------4----4---|---4-------4----4---|
D|-----|-2-----2-2----2-----|-2-----2-2----2-----|-2-----2-2----2-----|

G|--------------------|-----|--------------------|--------------------|
D|------------------2-|-----|-------------2------|-------------2------|
A|---4-------4----4---|---4-|------4----4------4-|------4----4------4-|
D|-2-----2-2----2-----|-2---|--2-2----2------2---|--2-2----2------2---|

G|--------------------|------------------------|
D|-------------2------|-------------2----------|
A|------4----4------4-|------4----4----4-5-4-2-|
D|--2-2----2------2---|--2-2----2--------------|

    Chorus 2
G|-----------------|-----------------|-----------------|-----------------|
D|-----------------|-----------------|-5-5-5-5-5-5-5-5-|-4-4-4-4-4-4-4-4-|
A|-7-7-7-7-7-7-7-7-|-5-5-5-5-5-5-5-5-|-----------------|-----------------|
D|-----------------|-----------------|-----------------|-----------------|

G|-----------------|-----------------|-----------------|-----------------|
D|-----------------|-----------------|-----------------|-----------------|
A|-----7-7-7-7-7-7-|-5-5-5-5-5-5-5-5-|-3-3-3-3-3-3-3-3-|-3-3-3-3-3-2-2-0-|
D|-.---------------|-----------------|-----------------|-----------------|

G|------------------|-----------------|-----------------|-----------------|
D|------------------|-----------------|-----------------|-----------------|
A|------------------|-----------------|-----------------|-----------------|
D|-5-x-5~---5-5-5-5-|-0-0-0-0-0-0-0-0-|-5-5-5-5-5-5-5-5-|-4-4-4-4-4-4-4-4-|
4
G|-----------------|-----------------|-----------------|------------------|
D|-----------------|-----------------|-----------------|------------------|
A|-----------------|-----------------|-3-3-3-3-3-3-3-3-|-3-3-3-3-3-3-3-3~-|
D|-2-2-2-2-2-2-2-2-|-0-0-0-0-0-0-0-0-|-----------------|------------------|


| .  rest
| /  slide up
| \  slide down
| ~  vibrato/hold note
| x  dead note
=============================================================================
            
Submit corrections

comments powered by Disqus
↑ Back to top | I Mother Earth Bass for Another Sunday. Lyrics for acoustic guitar and electric guitar. Tablatures and chords are parodies/interpretations of the original songs. You may use it for private study, scholarship, research or language learning purposes only