» » »

Imogen Heap, Headlock Tabs (ver.1)

Artists:  A B C D E F G H I J K L M N O P Q R S T U V W X Y Z # 

Headlock Tabs (ver.1)

Imogen Heap Tabs
 Rating:
4/5 (4 votes)
Headlock lessons Tabs too difficult? Try these video lessons and learn fast
                Capo on 6 in standard tuning with all chords and tabs relative to capo.


Chords used:

Em       C        C*       Am
e|-0-    e|-0-    e|-0-    e|-0-|
B|-0-    B|-1-    B|-3-    B|-1-|
G|-0-    G|-0-    G|-0-    G|-2-|
D|-2-    D|-2-    D|-4-    D|-2-|
A|-2-    A|-3-    A|-5-    A|-0-|
E|-0-    E|-x-    E|-x-    E|-x-|



Intro:
     Em
e|----------------------|
B|----------0---------0-|
G|-----0---------0------|
D|--------2---------2---|
A|---2---------2--------|
E|----------------------|   x2

Verse:
     Distant flickering, greener scenery.
e|-----------------------------------------------|
B|----------0---------0-----------1----------1---|
G|-----0---------0----------0----------0---------|
D|--------2---------2----------2----------2------|
A|---2---------2---------3-----------3-----------|
E|-----------------------------------------------|


     This weather's bri-      all back again.
e|----------------------------------------------------|
B|------------1------------1-----------1-----------3--|
G|------2------------2-----------0-----------0--------|
D|---------2------------2-----------2-----------4-----|
A|---0-----------0------------3-----------5-----------|
E|----------------------------------------------------|

    Great adventures,     faces and condensation.
e|-----------------------------------------------|
B|----------0---------0-----------1----------1---|
G|-----0---------0----------0----------0---------|
D|--------2---------2----------2----------2------|
A|---2---------2---------3-----------3-----------|
E|-----------------------------------------------|


     I'm going outside to      take it all in.
e|----------------------------------------------------|
B|------------1------------1-----------1-----------3--|
G|------2------------2-----------0-----------0--------|
D|---------2------------2-----------2-----------4-----|
A|---0-----------0------------3-----------5-----------|
E|----------------------------------------------------|

Chorus:
     You say too late-   got your heart in a headlock,
e|-----------------------------------------------|
B|----------0---------0-----------1----------1---|
G|-----0---------0----------0----------0---------|
D|--------2---------2----------2----------2------|
A|---2---------2---------3-----------3-----------|
E|-----------------------------------------------|


     I don't believe any of it.
e|----------------------------------------------------|
B|------------1------------1-----------1-----------3--|
G|------2------------2-----------0-----------0--------|
D|---------2------------2-----------2-----------4-----|
A|---0-----------0------------3-----------5-----------|
E|----------------------------------------------------|


     You say too late-   got your heart in a headlock,
e|-----------------------------------------------|
B|----------0---------0-----------1----------1---|
G|-----0---------0----------0----------0---------|
D|--------2---------2----------2----------2------|
A|---2---------2---------3-----------3-----------|
E|-----------------------------------------------|

C (strum from now on)
You know you're better than this.

Verse:
Em                      C
We're a different pair, do something out of step.

Am                  C          (C*)
Throw a stranger an unexpected smile

Em                  C
With big intention, still posted at your station.

Am                         C           (C*)
Always on about the day it should have fled.

Em                        C                    Am
You say too late to start, got your heart in a headlock,

C       (C*)
I don't believe any of it.

Chorus:
Em                        C                    Am
You say too late to start, with your heart in a headlock,

C               (C*)
You know you're better than this.

Em               C                   Am
Afraid to start, got your heart in a headlock,

C       (C*)
I don't believe any of it.

Em                         C                    Am
You say too late to start, with your heart in a headlock,

C               (C*)
You know you're better than this.

Verse:
Em                 C
I've been walking, you've been hiding,

Am                 C            (C*)
And you look half dead half the time.

Em              C
Monitoring you, like machines do,

Am                   C                   (C*)
You've still got it, I'm just keeping an eye

Em                 C
I've been walking, you've been hiding,

Am                 C            (C*)
And you look half dead half the time.


Em              C
Monitoring you, like machines do,

Am                            C          (C*)
You've still got it, I'm just keeping an eye

Chorus:
Em                   C            Am
So what, don't care, will not, the end

C               (C*)
You know you're better than this

Em                   C                   Am
I'll make you start, got your heart in a headlock,

C       (C*)
I don't believe any of it.

Em                        C                    Am
You say too late to start, with your heart in a headlock,

C               (C*)
You know you're better than this.

Em              C                   Am
Afraid to start, got your heart in a headlock,

C       (C*)
I don't believe any of it.

Em                         C                   Am
You say too late to start, with your heart in a headlock,

C               (C*)
You know you're better than this.




Note, you can end the song with whatever chord, for a mysterious, keep it on a C chord,
for more mystery, change to an Am chord, for a finished chord to really close the song,
end in an Em chord. For a very open ending, end in the C* chord listed at the top. Hope 
this helps and good luck with your playing!



Also note, the chord in parenthesis (C*) is an optional chord to be played, though that
is the beat to play it on, work with skipping and adding the chord where you personally
like it best.


If any mistakes, please leave a comment with the error and correction! Thanks and happy playing!
            
Submit corrections

comments powered by Disqus
↑ Back to top | Imogen Heap Tabs for Headlock. Lyrics for acoustic guitar and electric guitar. Tablatures and chords are parodies/interpretations of the original songs. You may use it for private study, scholarship, research or language learning purposes only