» » »

Imogen Heap, First Train Home Tabs (ver.1)

Artists:  A B C D E F G H I J K L M N O P Q R S T U V W X Y Z # 

First Train Home Tabs (ver.1)

Imogen Heap Tabs
Rating:
0/5 (0 votes)
First Train Home lessons Tabs too difficult? Try these video lessons and learn fast
                Imogen heap
Last train home (guitar interpretation)

Tuned to Eb 
Delay set at 595ms

Intro (slow)
e|---------|--------------------------------|x2-----------
b|-------3-|--------------------------------|-------------
g|-----2---|--------------------------------|-------------
d|---2-----|---5---5---5---5---5---5---5---5|--[-5-0-2-4-] (repeat the motif
a|-3-------|-5-5-5-5-5-5-5-5-3-3-3-3-3-3-3-3|-------------   in the brackets 
E|---------|-3---3---3---3---3---3---3---3--|-------------   on a loop pedal
                                   behind the next bars chords if you want) 

Intro part two and verse
e|--------------------------------------------------------------------|
b|--------------------------------------------------------------------|
g|--------------------------------------------------------------------|
d|-----------------5-5-5-5-5-5-5-5-4-4-4-4-4-4-4-4-5-5-5-5-5-5-5-4----|
a|-5-5-5-5-5-5-5-5-3-3-3-3-3-3-3-3-2-2-2-2-2-2-2-2-3-3-3-3-3-3-3-3----|
E|-3-3-3-3-3-3-3-3-3-3-3-3-3-3-3-3-0-0-0-0-0-0-0-0-3-3-3-3-3-3-3-3----|
     Got to get on it...
     Bodies disengage
     Is this an an echo game...

e|-------------------------------------------------------------------|
b|-------------------------------------------------------------------|
g|-----------5p4---4---------------5p4---4---------------------------|
d|-5p4--4----5---5-5-x4-2p0---0----5---5-5-x4------------------------|x2
a|-5--5-5-x4-3---3-3----2---2-2-x4-3---3-3---------------------------|
E|-3--3-3---------------0---0-0--------------------------------------|
   v  ^ v                       (Use the down stoke to hit the first two 
   The urge to feel your face       notes and the upstroke to hit the chord)
   A Frisbee one by one

Chorus
e|--------------------------------------------------------------------|
b|--------------------------------------------------------------------|
g|--------------------------------------------------------------------|
d|-----------------5-5-5-5-5-5-5-5-4-4-4-4-4-4-4-4-5-5-5-5-5-5-5-4----|x2
a|-5-5-5-5-5-5-5-5-3-3-3-3-3-3-3-3-2-2-2-2-2-2-2-2-3-3-3-3-3-3-3-3----|
E|-3-3-3-3-3-3-3-3-3-3-3-3-3-3-3-3-0-0-0-0-0-0-0-0-3-3-3-3-3-3-3-3----|
      First train home we've...

Post Chorus
e|--------------------------------------------------------------------|
b|--12-10-12-13----12----12-------------------------------------------|
g|--12-12-12-12-12-12-12-12-12----------------------------------------|
d|--------------12----12----12----------------------------------------|x2
a|--------------------------------------------------------------------|
E|--------------------------------------------------------------------|

Verse
e|--------------------------------------------------------------------|
b|--------------------------------------------------------------------|
g|--------------------------------------------------------------------|
d|-----------------5-5-5-5-5-5-5-5-4-4-4-4-4-4-4-4-5-5-5-5-5-5-5-4----|x2
a|-5-5-5-5-5-5-5-5-3-3-3-3-3-3-3-3-2-2-2-2-2-2-2-2-3-3-3-3-3-3-3-3----|
E|-3-3-3-3-3-3-3-3-3-3-3-3-3-3-3-3-0-0-0-0-0-0-0-0-3-3-3-3-3-3-3-3----|
        Temporal deadzone
        yet no one cares to notice for

e|-------------------------------------------------------------------|
b|-------------------------------------------------------------------|
g|-----------5p4---4---------------5p4---4---------------------------|
d|-5p4--4----5---5-5-x4-2p0---0----5---5-5-x4------------------------|x4
a|-5--5-5-x4-3---3-3----2---2-2-x4-3---3-3---------------------------|
E|-3--3-3---------------0---0-0--------------------------------------|
             I want to play
             I want to get
             I want to run in fields
             And I can't do any of that here can I?


Chorus
e|----------------------------------------------------------------------|
B|----------------------------------------------------------------------|
G|----------------------------------------------------------------------|
D|-------------55-5-55-5------------------------------------------------|
A|-55--55--55--33-3-33-3------------------------------------------------|
E|-33--33--33-----------------------------------------------------------|
        First train home (each doublet with each "first train home")

Chorus part 2 (Use normal chorus chords/rhythm. OR THIS BASS LINE.

e|-----------------------------------------------------------------------|
B|-----------------------------------------7p5----------------7p5--------|
G|------0h4h0---------0h4p0-------------4------4-----------4-------4-----|
D|----------------------------------5------------5--------5----------5---|
A|----5------5-------5------5---3-5----------------5-3-5---------------5-|
E|-3h7---------7-3-7----------7------------------------------------------|

e|---------------------------------------------------------------------|
B|-------3h5p3----------3-------3--------5p3------------5p3------------|
G|-----4-------4------4-------4-------5------5-------5-------5---------|
D|-2-5-----------5-2-5----0-5-------5---5------5---5---5-------5-------|
A|--------------------------------3--------------3---------------3-----|
E|---------------------------------------------------------------------|

Middle 8

e|--------------------|-------------------------------------------|
B|--------------------|-------------------------------------------|
G|--------4p2--4p2--2-|------4p2--4p2---4p2-----------------------|
D|-----------5----5---|---------5----5-----5----------------------|
A|--------------------|-------------------------------------------|
E|--3-3-3-3--3-3--3-3-|3-3-3-3--3-3--3--3--3-3--------------------|
           (guitar emulates backing vocals and bass)
What matters to you...

Chorus
e|--------------------------------------------------------------------|
b|--------------------------------------------------------------------|
g|--------------------------------------------------------------------|
d|-----------------5-5-5-5-5-5-5-5-4-4-4-4-4-4-4-4-5-5-5-5-5-5-5-4----|x6
a|-5-5-5-5-5-5-5-5-3-3-3-3-3-3-3-3-2-2-2-2-2-2-2-2-3-3-3-3-3-3-3-3----|
E|-3-3-3-3-3-3-3-3-3-3-3-3-3-3-3-3-0-0-0-0-0-0-0-0-3-3-3-3-3-3-3-3----|
      First train home..... 
            
Submit corrections

comments powered by Disqus
↑ Back to top | Imogen Heap Tabs for First Train Home. Lyrics for acoustic guitar and electric guitar. Tablatures and chords are parodies/interpretations of the original songs. You may use it for private study, scholarship, research or language learning purposes only