» » »

Leaving The Past Tabs (ver.3)

Artists:  A B C D E F G H I J K L M N O P Q R S T U V W X Y Z # 

Leaving The Past Tabs (ver.3)

Immortal Technique
Rating:
0/5 (0 votes)

Hard to play? Try these video lessons and learn fast.
                -------------------------------------------------------------------------------
                  Leaving The Past - Immortal Technique
-------------------------------------------------------------------------------

Tuning:Standard
       Capo on 3

e|----------0-3--2----3-5--7-8-7--7---5----5--3--3--3--2-------------------0-|
B|--1------------1---------5------6--------4--2--2--2--0-------------------0-|
G|------0--------2---------7------7--------5--3--3--3--2----2--------------0-|
D|-----2-2-----------------5------5-------------------------2--2-2-2-2-2---2-|
A|--0--------------------------------------3--2--0--1--2----2--------------2-|
E|---------------------------------------------------------------------------|

And repeat throughout the song. The End
            
Hard to play? Try these video lessons and learn fast. | Correct




comments powered by Disqus
↑ Back to top | Tablatures and chords are parodies/interpretations of the original songs. You may use it for private study, scholarship, research or language learning purposes only